Cragga - White Room Chords & Tabs

 

White Room Chords & Tabs

Cragga Chords & Tabs

Version: 1 Type: Tab 0 ratings
1 star 2 stars 3 stars 4 stars 5 stars
comments

White Room Tab

   
ARTIST; CRAGGA
SONG; THE WHITE ROOM
WRITTEN BY; CRAIG HUTCHINSON

verse riff

  D#                         C
E-----------------------------------------------------|
B-16-----16----14-----14-----13----13----14-----14----|
G----13-----13-----13-----13----13----13-----13----13-|
D-----------------------------------------------------|
A-----------------------------------------------------|
E-----------------------------------------------------|

I SIT WITH MY THOUGHTS AND WONDERS
MY HEAD IS FULL
I THINK OF THE NEW ESTABLISHMENT
IT'S FANCICAL
WHERES THE JUSTICE IN THESE WORDS AND
WHAT DO THEY MEAN
WHATS THE POINT OF SAYING NOTHING WHEN#YOU CAN'T BE SEEN

bridge
[ Tab from: http://www.guitartabs.cc/tabs/c/cragga/white_room_tab.html ]
E       B        C#               A
NOW ITS GOT YOU, WHERE YOU GONNA GO WITH IT
E         B       C#     A
WHEN YOUR COMIN AROUND
E         B       C#              A
NOW IT'S GOT YOU, WHAT YOU GONNA DO WITH IT
E              B             C#
WHEN YOUR BEEN KICKED TO THE GROUND

chorus riff

  A           B
E-------------------------|
B-10----10----12----12----|
G----11----11----12----12-|
D-------------------------|
A-------------------------|
E-------------------------|
SO GO, TO THE WHITE ROOM, IT'S SO PRISTINE AND NOT TARNISHED
THE SMELL ALONE CAN GET YOU HIGH SO DON'T FIGHT IT

verse 2

YOU TAKE THE SIGN AND PAY THE PRICE AND
I'LL RUN TO YOU
TAKE A SLIDE INTO THE UNKNOWN
THIS FEELING IS NEW
I HEAR A HUNDRED PEOPLE WHO
CALL OUT IN PAIN
IT LEAVES MY HEAD LIKE A WHIRLPOOL
ITS THE SAME FEELING AGAIN

bridge

chorus

verse3

WHEN YOUR ALONE IN YOUR PLACE OF DARKNESS
THINK OF THE LIGHT
IT'LL LEAVE YOU OUT OF CONTROL
BUT YOU WILL BE ALRIGHT

bridge

chorus times 2

verse riff outro
Comments