Cragga - Lost Myself Chords & Tabs

 

Lost Myself Chords & Tabs

Cragga Chords & Tabs

Version: 1 Type: Tab 0 ratings
1 star 2 stars 3 stars 4 stars 5 stars
comments

Lost Myself Tab

   
SONG TITLE; LOST MYSELF
ARTIST; CRAGGA

written by Craig Hutchinson

intro:

 A  D5/F#   times 2

intro riff
e---------6-5-4---|
b--6---4----------|
g----5------------|
d-----------------|
a-----------------|
e-----------------|

A  D5/F# times 4

verse: C E G C
       C E G     times 2

bridge: A7 Em G C
        A7 Em G C C7

chorus: A D5/F# times3
        A7 Em G C C7

solo: A D5/F# times 6

lyrics

verse1

MAYBE I DONT HAVE THE IMAGINATION I ONCE HAD
MAYBE I JUST DRUNK IT OUT OF ME
MAYBE I CANT FIND THE IMAGINATION THAT I LOST
MAYBE THAT IS WHAT IS KILLING ME

bridge 1

AND MAYBE I'M NOT CHANGIN'
IT'S MA MIND THATS MOVIN ON
WHEN IT'S REDISCOVERED
I KNOW YOUR THE ONE WHOS WRONG

chorus
[ Tab from: http://www.guitartabs.cc/tabs/c/cragga/lost_myself_tab.html ]
I THINK I'VE LOST MYSELF   (times 3)
AND I CANT LIVE WITHOUT IT ITS MA MIND THAT IS MA WEALTH

verse 2

WHEN I WAS A YOUNG BOY I COULD DO ANYTHING
THE WHOLE WORLD WAS A PLAYGROUND JUST FOR ME
BUT NOW I AM NOSTALGIC OF THE DAYS THAT I HAVE LOST
NOW I'VE GOT RESPONSIBILITIES

bridge 2

IF YOU START BELIEVING THAT YOU ARE NOT THE ONE
THEN YOUR DAYS REPEATING AND YOU'LL NEVER BE AS STRONG

chorus

solo

e-----------------------------------|
b-13-13-13-11----11--10-10-10-8---8-|  times 3
g-------------12----------------9---|
d-----------------------------------|
a-----------------------------------|
e-----------------------------------|

e------------------------------------------------------------6-5-4-|
b----16----14----16----18-16-14-------13----11----13--6---4--------|
g-15----15----15----15----------15-12----12----12-12----5----------|
d------------------------------------------------------------------|
a------------------------------------------------------------------|
e------------------------------------------------------------------|

bridge 2
chorus
outro (same as intro)
solo (again)
Comments