Cradle Of Thorns - I Go 1st Chords & Tabs

 

I Go 1st Chords & Tabs

Cradle Of Thorns Chords & Tabs

Version: 1 Type: Bass Tab 0 ratings
1 star 2 stars 3 stars 4 stars 5 stars
comments

I Go 1st Bass Tab

I Go 1st
By: Cradle Of Thorns
Tabbed by: Chris Wurth
Standard Tuning

Verse 1st part:
G|-----------------------|
D|-----------------------|
A|-----------------------|
E|--5-4-3--0--3--0-0-1-1-|
[ Tab from: http://www.guitartabs.cc/tabs/c/cradle_of_thorns/i_go_1st_btab.html ]
Verse 2nd part:
G|----------------------------|
D|----------------------------|
A|----------------------------|
E|--0-0--1--0--0--0--0--1-1-1-|

Chorus:
G|----------------------|
D|----------------------|
A|----------------------|
E|-5--4--3---0--3sl6--5-|

Bridge:
G|------------|----------|
D|------------|----------|
A|------------|----------|
E|-0--1--3--2-|-0--3-5-4-|


Any Questions or COmments, mail to me at Embryo_99@hotmail.com
Comments