Cradle Of Filth - The Principle Of Evil Made Flesh Chords & Tabs

 

The Principle Of Evil Made Flesh Chords & Tabs

Cradle Of Filth Chords & Tabs

Version: 2 Type: Tab 0 ratings
1 star 2 stars 3 stars 4 stars 5 stars
comments

The Principle Of Evil Made Flesh Tab

The principle of evil made flesh by Cradle of Filth..


este es mi primer tab... vamos a ver como sale todo

Voy a poner las 2 guitarras d una vez, para que se escuche mejor.


Riff 1
guitarra 1
E----------------------------------------------------------------|
B----------------------------------------------------------------|
G----------------------------------------------------------------|
D--0-----------------0-------------------------------------------|
A--0-----------------0---------7-6-5-----------------------------|
E--0-0-0-0-0-5-4-3-4-0-0-0-0-0-5-4-3-----------------------------|
guitarra 2
E----------------------------------------------------------------|
B----------------------------------------------------------------|
G----------------------------------------------------------------|
D--0-----------------0-------------------------------------------|
A--0-----------------0---------7-6-5-----------------------------|
E--0-----------------0---------5-4-3-----------------------------|

riff 2
guitarra 1
E----------------------------------------------------------------|
B----------------------------------------------------------------|
G----------------------------------------------------------------|
D--12s---13s---12s---13s---16s-15s-------------------------------|
A----------------------------------------------------------------|
E----------------------------------------------------------------|

guitarra 2
E----------------------------------------------------------------|
B----------------------------------------------------------------|
G----------------------------------------------------------------|
D--8s----9s----8s----9s----12s-10s-------------------------------|
A--8s----9s----8s----9s----12s-10s-------------------------------|
E--6s----7s----6s----7s----10s-9s--------------------------------|

riff 1

riff 3
guitarra 1
E----------------------------------------------------------------|
B----------------------------------------------------------------|
G----------------------------------------------------------------|
D----------------------------------------------------------------|
A--7-8-7-6-------------------------------------------------------|
E----------------------------------------------------------------|

guitarra 2
E----------------------------------------------------------------|
B----------------------------------------------------------------|
G----------------------------------------------------------------|
D----------------------------------------------------------------|
A--7-8-7-6-------------------------------------------------------|
E----------------------------------------------------------------|

riff 4
guitarra 1

E----------------------------------------------------------------|
B----------------------------------------------------------------|
G----------------------------------------------------------------|
D----------------------------------------------------------------|
A--7-8-7-6-------------------------------------------------------|
E----------------------------------------------------------------|

guitarra 2
E-------------------------------------------------------------------|
B-------------------------------------------------------------------|
G-------------------------------------------------------------------|
D--9-10-9-8---------------------------------------------------------|
A--9-10-9-8---------------------------------------------------------|
E--7-8--7-6---------------------------------------------------------|

riff 5
guitarra 1
E----------------------------------------------------------------|
B----------------------------------------------------------------|
G----------------------------------------------------------------|
D--2s-------2s---------------------------------------------------|
A--2s-------2s-2-3-2-0-------------------------------------------|
E--0s-2-3-1-0s---------3-2---------------------------------------|

guitarra 2
E----------------------------------------------------------------|
B----------------------------------------------------------------|
G----------------------------------------------------------------|
D--2s-x-----2s-x-------------------------------------------------|
A--2s-x-----2s-x-------------------------------------------------|
E--0s-x-----0s-x-------------------------------------------------|

riff 6
guitarra 1
E----------------------------------------------------------------|
B----------------------------------------------------------------|
G--------------------10s-----------------------------------------|
D--7s----------------10s-----------------------------------------|
A--7s----------------8s------------------------------------------|
E--5s------------------------------------------------------------|

guitarra 2
E----------------------------------------------------------------|
B----6-5---5----------------6-5---5------------------------------|
G--------7---7-5----------------7---7-5--------------------------|
D----------------7----------------------8------------------------|
A----------------------------------------------------------------|
E----------------------------------------------------------------|
[ Tab from: http://www.guitartabs.cc/tabs/c/cradle_of_filth/the_principle_of_evil_made_flesh_tab_ver_2.html ]
guitarra 1
E----------------------------------------------------------------|
B----------------------------------------------------------------|
G--7s----------------9s------------------------------------------|
D--7s----------------9s------------------------------------------|
A--5s----------------7s------------------------------------------|
E----------------------------------------------------------------|

guitarra 2
E----------------------------------------------------------------|
B---------------------------6-5---5------------------------------|
G-------------------------------7---7-5--------------------------|
D---------------------------------------9------------------------|
A----------------------------------------------------------------|
E----------------------------------------------------------------|

SOLO

guitarra 1 Solo / guitarra 2 Riff 6 chords

-------------------------------5---7---8-7-8-7-8---10---8-7-8-7-8-7-|
-----------5---6-5-6-5-6---8----------------------------------------|
-5-4---7------------------------------------------------------------|
--------------------------------------------------------------------|
--------------------------------------------------------------------|
--------------------------------------------------------------------|

-10---12---13-12-------------------------------------------------------------|
-----------------12b13-12b13r12-10-9-----------------------------------------|
---------------------------------------9-10---10-9-10-9-10----------------9\-|
-----------------------------------------------------------10-9-10-9-10------|
-----------------------------------------------------------------------------|
-----------------------------------------------------------------------------|

riff 7
guitarra 1
E----------------------------------------------------------------|
B----------------------------------------------------------------|
G--4/5-6-7----5/6-7-8----1/2-3-4----0-2-3------------------------|
D----------------------------------------------------------------|
A----------------------------------------------------------------|
E----------------------------------------------------------------|
guitarra 2
E----------------------------------------------------------------|
B----------------------------------------------------------------| despues d la segunda 
q c hace esto,
G----------------------------------------------------------------| c hacen los acordes constantemente,
D--7x----------8x----------3x----------2x------------------------| mejor dicho la x c cambia a s
A--7x----------8x----------3x----------2x------------------------|
E--5x----------6x----------1x----------0x------------------------|

riff 8

guitarra 1
E----------------------------------------------------------------|
B----------------------------------------------------------------|
G----------------------------------------------------------------|
D--9s---------------------------------------11-10-13-12----------|
A--9s---------------------------------------11-10-13-12----------|
E--7s---------------------------------------9--8--11-10----------|


guitarra 2
E----------------------------------------------------------------|
B----------------------------------------------------------------|
G----------------------------------------------------------------|
D----------------------------------------------------------------|
A-7h8-7p5---7h8-7p5---7h8-7p5---7h8-7p5...-----------------------|
E-------------------------------------------9-8-11-10------------|

riff 9 solo la guitarra 2 cambia asi:
guitarra 2

E----------------------------------------------------------------|
B----------------------------------------------------------------|
G----------------------------------------------------------------|
D--9s------------------------------------------------------------|
A--9s------------------------------------------------------------|
E--7s---------------------------------------9--8--11-10----------|

riff 10
guitarra 1 y 2
E----------------------------------------------------------------|
B----------------------------------------------------------------|
G----------------------------------------------------------------|
D--10/11-11------------------------------------------------------|
A--10/11-11--8-7-8-7-8-7-8-7-8-7---------------------------------|
E---8/9--9-----------------------9-8-----------------------------|

--------solo de bajo!-------

luego sigue el riff 1
luego el riff 2
luego el riff 1 otra vez
y luego el riff 5

al final de el riff 5 viene este pequeño final

E----------------------------------------------------------------|
B----------------------------------------------------------------|
G----------------------------------------------------------------|
D------------------------------------------2---------------------|
A--2-3-2-0------2-3-2-0------2-3-2-0-------2---------------------|
E----------3-2----------3-2----------3-2---0---------------------|


por David Garzon


Este va dedicado a Carol, aunque le tenga celos a la guitarra :D
a todos mis amigos d Colombia y Canada, sobretodo Pao Pao, hermanitos,
etc....


y felicitaciones a todo el movimiento metal y gotico q c ah realizado en colombia
durante los ultimos años, han nacido bandas muy buenas y poco a poco vamos
a lograr la union d razas, no por una religion, creencia, guerra o paz, fama o "fans",
sino x esta, no musica, sino forma d pensar y vivir, Metal.....
Comments