Cradle Of Filth - The Principle Of Evil Made Flesh Chords & Tabs

 

The Principle Of Evil Made Flesh Chords & Tabs

Cradle Of Filth Chords & Tabs

Version: 1 Type: Tab 0 ratings
1 star 2 stars 3 stars 4 stars 5 stars
comments

The Principle Of Evil Made Flesh Tab

 The Principle of Evil Made Flesh - Cradle of Filth
 `'`'`'`'`'`'`'`'`'`'`'`'`'`'`'`'`'`'`'`'`'`'`'`'`'
 This is unfinished... there're only about three lead riffs left to figure,
 but I wanted to get it out today so here it is. If anybody finishes this
 before I do, please post your work. Thanks...
 Oh, btw, tune down one step. Song structure not included in this file. And
 mail me at brunor@sggs.wcape.school.za


  Riff 1a:
 |---------------------|---------------------|
 |---------------------|---------------------|
 |---------------------|---------------------|
 |-3s4s3-3s4s3-7-6-5-6-|-3s4s3-3s4s3-7-6-5-6-|
 |-3s4s3-3s4s3-7-6-5-6-|-3s4s3-3s4s3-7-6-5-6-|
 |-1s2s1-1s2s1-5-4-3-4-|-1s2s1-1s2s1-5-4-3-4-|

  Riff 1b:
 |---------------------|---------------------|
 |---------------------|---------------------|
 |---------------------|---------------------|
 |-3-------------------|-3-----------7-6-5-6-|
 |-3-------------------|-3-----------7-6-5-6-|
 |-1-------------------|-1-----------5-4-3-4-|


  Riff 2a: "From the primeval mass..."    Riff 2b: Optional harmony
 |------------------------|              |-------------------------|
 |------------------------|              |-------------------------|
 |------------------------|              |-8----9----8----9--12-11-|
 |------------------------|              |-------------------------|
 |-6----7----6----7--10-9-|              |-------------------------|
 |------------------------|              |-------------------------|

[ Tab from: http://www.guitartabs.cc/tabs/c/cradle_of_filth/the_principle_of_evil_made_flesh_tab.html ]
  Riff 3a: "The abolition of..."    Riff 3b:
 |---------|                       |----------|
 |---------|                       |----------|
 |---------|                       |----------|
 |---------|                       |-9-10-9-8-|
 |-7-8-7-6-|                       |-7-8--7-6-|
 |---------|                       |-7-8--7-6-|


  Riff 4: "Shattered are the icons of the worthless..."
 |--------------------------------------|
 |--------------------------------------|
 |--------------------------------------|
 |-22222222--------22222222-------------|
 |-22222222--------22222222-2h3p2-0-----|
 |-00000000-2h3-1--00000000---------3-2-|


  Riff 5: "World without end..."
 |-----|-----|-----|-----|
 |-----|-----|-----|-----|
 |-----|-----|-----|-----|
 |-7---|-5---|-7---|-9---|
 |-5---|-3---|-5---|-7---|
 |-5---|-3---|-5---|-7---|
   hold  hold  hold  hold


  Riff 6a:
 |-----|-----|-----|-----|
 |-----|-----|-----|-----|
 |-----|-----|-----|-----|
 |-7---|-8---|-7---|-6---|
 |-5---|-6---|-5---|-4---|
 |-5---|-6---|-5---|-4---|
   damp  damp  damp  damp


 |-------------------------------------------------------|
 |-------------------------------------------------------|
 |-------------------------------------------------------|
 |-------------------------------------------------------|
 |-------------------------------------------------------|
 |-------------------------------------------------------|


  Riff 8: "To the name of Baphomet..."
 |---------------------------------|
 |---------------------------------|  You'll have to get the feel of this
 |---------------------------------|  riff yourself. Listen to the recording
 |-5s7--7-x-7-7-7s5--8s7-7-x-7-6-5-|  for appropriate damping, etc.
 |-5s7--7-x-7-7-7s5--8s7-7-x-7-6-5-|
 |-3s5--5-x-5-5-5s4--6s5-5-x-5-4-3-|
Comments