Cradle Of Filth - The Forest Whispers My Name Chords & Tabs

 

The Forest Whispers My Name Chords & Tabs

Cradle Of Filth Chords & Tabs

Version: 1 Type: Tab 0 ratings
1 star 2 stars 3 stars 4 stars 5 stars
comments

The Forest Whispers My Name Tab

   
Track: The Forest Whispers My Name
Artist: Cradle of Filth
Transcribed: Nocturnal Heartbeat (ghostwhowalks@lightspeed.bc.ca)

1. Note that there may be mistakes, and I may play some parts differently
   from others. All corrections and suggestions are welcome.

2. As always with Cradle of Filth songs, there are keyboard intros
   and interludes. I have tried my best to capture the original
   sound with the guitar.

3. All the symbols used in this tablature:

~: Vibrato
h: Hammer on
p: Pulling off
s: Slide
t: Trill
m: Palm mute
ph: picking harmonics

4. For those parts played more than once, please listen to the song itself.
   It should be simple to figure out how many times you need to play the
   part. And it goes the same for the case when the guitar plays thrills.

Tune down 1 step, so the sixth string becomes D.

 Figure A: Keyboard intro - it's likely there may be mistakes here...
 ---------12---------12---------12---------12---------12-----10------------
 -----12-----12---------12---------12---------12---------------------------
 --9-------------9----------9----------9----------9------9------9----------
 --------------------------------------------------------------------------
 --------------------------------------------------------------------------
 --------------------------------------------------------------------------

 Figure B: Intro riff.
 --------------------------------------------------------------------------
 --------------------------------------------------------------------------
 --------------------------------------------------------------------------
 ---------8----------------------------------------------------------------
 --2--5m--6--2m--2m--2m----------------------------------------------------
 --0--3m-----0m--0m--0m--0m--0m--2m--2m--0m--0m----------------------------

 ----------------------------------/---------------------------------------
 ----------------------------------/---------------------------------------
 ----------------------------------/---------------------------------------
 ---------8------------------2ph---/---------------------------------------
 --2--5m--6--2m--2m--2m--2m--------/---2-----------------------------------
 --0--3m-----0m--0m--0m--0m--------/---0-----------------------------------

 Figure C: Main riff.
 ------------------------------/-------------/-----------------------------
 ------------------------------/-------------/-----------------------------
 ------------------------------/-------------/-----------------------------
 --3p2p0-----------------------/-------------/-----------------------------
 ---------3p2p0----------------/-------------/-----------------------------
 ----------------3p2p1--2p1p0--/--00000000---/--3333--1111-----------------
 			      / palm mute   /  palm mute

 Figure D:
 --------------------------------------------------------------------------
 --------------------------------------------------------------------------
 --------------------------------------------------------------------------
 --------5--5--5--4--4--4---------5--5--5--4s5-----------------------------
 --2--2--3--3--3--2--2--2---3--3--3--3--3--2s3--3--------------------------
 --0--0---------------------1--1----------------1--------------------------

 Figure E:
 --------------------------------------------------------------------------
 --------------------------------------------------------------------------
 --------------------------------------------------------------------------
 --------------------------------------------------------------------------
 --5s7~--5s7--8~--8--7~--7--6~---------------------------------------------
 --------------------------------------------------------------------------

 Figure F: "The forest whispers my name..." Is that a coincidence or what?
 The "F" part... I really like playing single notes on low strings because
 it sounds warmer and thicker, but if you prefer playing on high strings,
 that's fine, too.
 --------------------------------------------------------------------------
 --------------------------------------------------------------------------
 --------------------------------------------------------------------------
 -----------9--9--8--7-----------------------------------------------------
 --5s7~--7--------------8~--8--10--8---------------------------------------
 -------------------------------------10~--10--8--10-----------------------

 Figure G: Keyboard section in the middle.
 ----------------------------/---------------------------------------------
 ----------------------------/---------------------------------------------
 ----------------------------/---------------------------------------------
 ----------------------------/---7-----------------------------------------
 --2----------5--4--5--4-----/---5-----------------------------------------
 --0--0m--2m--3--2--3--2-----/---------------------------------------------

 Figure H:
 ----------------------------------------------------------/---------------
 ----------------------------------------------------------/---------------
 ----------------------------------------------------------/---------------
 --2t--4h5p4---------4h5p4-----2t--4h5p4-----7t--5t--4t----/---------------
 -------------5--3t---------5-------------5----------------/---2-----------
 ----------------------------------------------------------/---0-----------


=======


CRADLE OF FILTH
'The Forest Whispers My Name'

from the album 'The Principle Of Evil Made Flesh'


transcribed by
  AJMB (toti@caleida.pt)

find more metal tablatures at
  http://venus.spaceports.com/~metaltab/


Tune down to D (1 step)

BASS INTRO:
|-------------------------|
|-------------------------|
|--------4---2---1-2-1----|
|--0---2---2---2-------2--|

RIFF1:                                                        FILL1:
   E   F# C#  F              E   F# C#  F                        E
|------------------------------------------------------|      |-----|
|------------------------------------------------------|      |-----|
|------------------------------------------------------|      |-----|
|---------6\------------------------6\--------------3--|      |-----|
|--2---4--4\--3-3-3--333333--2---4--4\------3-3-3-3----|      |-----|
|--0---2------1-1-1--111111--0---2------0-0-1-1-1-1----|      |--0--|
              . . .  ......             . . . . . . H

BASS RIFF:
|----------------------------------------------------------|
|--3-2-0----------------------3-2-0------------------------|
|--------3-2-0----------------------3-2-0------------------|
|--------------3-1-00000000---------------3-1-44444-11111--|
[ Tab from: http://www.guitartabs.cc/tabs/c/cradle_of_filth/the_forest_whispers_my_name_tab.html ]
RIFF2:
                   E                          G#    F
|----------------------------------------------------------|
|----------------------------------------------------------|
|----------------------------------------------------------|
|--3-2-0----------------------3-2-0------------------------|
|--------3-2-0-----22222222---------3-2-0-----66666-33333--|
|--------------3-1-00000000---------------3-1-44444-11111--|

RIFF3:
|---------------------------------------------------------------
|---------------------------------------------------------------
|---------------------------------------------------------------
|---------------------------------------------------------------
|-------------------33333333-22222222------------------33333333-
|--0000000000000000-------------------1111111111111111----------

          ------------|
          ------------|
          ------------|
          ------------|
          -2222-------|
          ------3333--|


FILL2:
|---------------------------------------------------------------
|---------------------------------------------------------------
|---------------------------------------------------------------
|-------------------55555555-44444444------------------55555555-
|--2222222222222222-------------------3333333333333333----------
|---------------------------------------------------------------

          ------------|
          ------------|
          ------------|
          -4444-------|
          ------5555--|
          ------------|

RIFF4:
|---------------------|
|---------------------|
|---------------------|
|---------------------|
|--/7---/8---/7---/6--|
|---------------------|

RIFF5:
    E    F    E    D#
|---------------------|
|---------------------|
|---------------------|
|---9----10---9----8--|
|---7----8 ---7----6--|
|---------------------|

RIFF6:                                           FILL3:
|-----------------------------------------|     |------|
|-----------------------------------------|     |------|
|-----------------------------------------|     |------|
|---------9--9-8-7------------------------|     |--9/--|
|--7---7-----------8--8-10-8--------------|     |--7/--|
|----------------------------10--10-7-10--|     |------|

RIFF7:                             FILL4:
   E     F# G   F#  G   F#           D
|---------------------------|     |-----|
|---------------------------|     |-----|
|---------------------------|     |-----|
|--9---9-11-12--11--12--11--|     |--7--|
|--7---7-9 -10--9 --10--9 --|     |--5--|
|---------------------------|     |-----|

RIFF8:
|-------------------------------------------------------------
|-------------------------------------------------------------
|-------------------------------------------------------------
|-------------------------------------------------------------
|--77777777-101010-999---------------101010-999------77777777-
|----------------------1010-88888888------------1010----------

          -----------------------------------------|
          -----------------------------------------|
          -----------------------------------------|
          -----------------77777777----------------|
          -101010-999---------------10101010-9999--|
          ------------1010-------------------------|

FILL5:
|------------------------------------------------------------------
|------------------------------------------------------------------
|------------------------------------------------------------------
|--99999999-121212-111111-----------------------121212-111111------
|-------------------------1212-1010101010101010---------------1212-
|------------------------------------------------------------------

          ---------------------------------------------------------|
          ---------------------------------------------------------|
          -----------------------------99999999--------------------|
          -99999999-121212-111111---------------12121212-11111111--|
          ------------------------1212-----------------------------|
          ---------------------------------------------------------|

END:
   E
|-----|
|-----|
|-----|
|-----|
|--2--|
|--0--|


SONG STRUCTURE:

BASS INTRO    (4X)
RIFF1         (4X)
FILL1         (1X)
BASS RIFF     (2X)
RIFF2         (4X)
RIFF3         (2X)
RIFF3 w/FILL2 (2X)
RIFF4         (2X)
RIFF5         (2X)
RIFF6         (4X)
FILL3         (2X)
RIFF7         (8X)
FILL4         (1X)
RIFF8         (2X)
RIFF8 w/FILL5 (2X)
RIFF8         (2X)
RIFF8 w/FILL5 (2X)
RIFF8         (2X)
BASS RIFF     (2X)
RIFF2         (4X)
END           (1X)


=====


Cradle of filth
The Forest Whispers My Name

Transcribed by: Nega (Rock 'n' roll Jesus)
e-mail: Mattiy@hotmail.com

Riff 1:
----------------------------------
----------------------------------
-----5-7-7------------------------
-2---5-7-7-\3-3-3-3---3-3-3-3-3-3-
-2---3-5-5-\3-3-3-3---3-3-3-3-3-3-
-0---------\1-1-1-1---1-1-1-1-1-1-


Riff 2
---------------------------------
---------------------------------
---------------------------------
---------------------------------
-6p5p0---------------------------
-------6p5p0-4p1-0-0-0-0-0-0-0-0-

----------------------------------
----------------------------------
----------------------------------
----------------------------------
-6p5p0----------------------------
--------6p5p0-4p1-4-4-4-4-1-1-1-1-


Riff 3 "Black candles dance..."
--------------------------------
--------------------------------
--------------------------------
-2-2---2-2-2---2-8-8--8-7-7---7-
-2-2---2-2-2---2-8-8--8-7-7---7-
-0-0---0-0-0---0-6-6--6-5-5---5-

----------------------------------
----------------------------------
----------------------------------
-3-3---3-3-3---3-8-8--8-7-7---7---
-3-3---3-3-3---3-8-8--8-7-7---7-3-
-1-1---1-1-1---1-6-6--6-5-5---5-1-


Riff 4 "I sip the blood..."
----------------
----------------
----------------
----------------
-5v--6v--5v--4v-
----------------


Riff 5 "The forest whispers..."
-----------------------------------------
-----------------------------------------
-----------------------------------------
-------7---7-6-5-------------------------
-5---5-------------6---6-8-6---3---3---3-
-------------------------------------5---


Riff 6 "I walk the path..."
--------------------------
--------------------------
--------------------------
-7---7-9--10---9--10-9--7-
-5---5-7--8----7--8--7--5-
--------------------------


Riff 7 "The Principle of evil..."
---------------------------------------------------
---------------------------------------------------
---------------------------------------------------
-------------------------------------5-------------
-5---7-8-7-5-----7-8-7-3-5---7-8-7-5-----8---7---5-
--------------6------------------------------------

Riff 2 Again


End:
----
----
----
-7--
-7--
-5--
Comments