Cradle Of Filth - Swansong For A Raven Chords & Tabs

 

Swansong For A Raven Chords & Tabs

Cradle Of Filth Chords & Tabs

Version: 1 Type: Tab 0 ratings
1 star 2 stars 3 stars 4 stars 5 stars
comments

Swansong For A Raven Tab

.  - palm mute           /  - slide up to
  - slide down to       ~  - vibrato
h  - hammer on           b  - Bend
p  - pull off            Suffixes for bend
t  - tap                 f  - full bend    h - half bend
ph - pinched harmonic    q  - quarter bend t - tap bend
*  - see comment         ^  - Hold bend    r release bend
x  - Stuccatto           ~  - vibrato bend
,  - slight palm mute    () - ghost note, sustained note
"  - tremolo note        <> - Trill

D|----------------------------------------------------------------|
A|----------------------------------------------------------------|
F|----------------------------------------------------------------|
C|-4xx444xx44--0xx000xx00--2xx222xx22--4xx44----------------------|
G|-4xx444xx44--0xx000xx00--2xx222xx22--4xx44--5p4p0-4h5h7---------|
D|-2xx244xx24---xx---xx----0xx000xx00--2xx22----------------------|


|----------------------------------------------------------------|
|----------------------------------------------------------------|
|----------------------------------------------------------------|
|---7---<7>---7-----7---<6>---6-----7---<7>---7----7--6--3-333---|
|-8---8---------8-8---8---------7-8---8---------8--7--6--3-333---|
|--------------------------------------------------5--4--1-111---|


|----------------------------------------------------------------|
|----------------------------------------------------------------|
|----------------------------------------------------------------|
|----------------------------------------------------------------|
|-------------------------------------------------10-11p10-8-6-5-|
|-8-10-11-10-8-10-7-8p7-4-3--8-10-11-10-8-10---------------------|
  t t  t  t  t t  t t t t t  t t  t  t  t t       t  t  t  t t t

|---------------------------------|
|---------------------------------|
|------pm------pm-----------------|
|-5\44-44-2/44-55-5\44--8\5-2/5---|
|-5\44-44-2/44-55-5\44--8\5-2/5---|
|-3\22-22-0/22-33-3\22--6\3-0/3---|


|------------------------------------------------|
|------------------------------------------------|
|------pm------pm--------------------------------|
|-5\44-44-2/44-55-5\4-4-3/10-3/5/12-12\5---------|
|-5\44-44-2/44-55-5\4-4-3/10-3/5/12-12\5---------|
|-3\22-22-0/22-33-3\2-2-1/8--1/3/10-10\3---------|
[ Tab from: http://www.guitartabs.cc/tabs/c/cradle_of_filth/swansong_for_a_raven_tab.html ]
|------------------------------------------------|
|------------------------------------------------|
|------------------------------------------------|
|-5\4-4-4-44-2/4-4-4-44-5\4-4-4-44-8\5-2/5-------|
|-5\4-4-4-44-2/4-4-4-44-5\4-4-4-44-8\5-2/5-------|
|-3\2-2-2-22-0/2-2-2-22-3\2-2-2-22-6\3-0/3-------|


|------------------------------------------------|
|------------------------------------------------|
|------------------------------------------------|
|-5\4-4-4-44-2/4-4-4-44-3/10-3/5-12~\5-12\5------|
|-5\4-4-4-44-2/4-4-4-44-3/10-3/5-12~\5-12\5------|
|-3\2-2-2-22-0/2-2-2-22-1/8--1/3-10~\3-10\3------|



|-----------------------------------------------------|
|-----------------------------------------------------|
|-4\--------------------------------------------------|
|----4h5-5p4h5/7--10-99-9h10p9-9-9-9-9-9b-9br(7)\-----|
|-----------------------------------------------------|
|-----------------------------------------------------|


|--------------------------------|
|--------------------------------|
|-----------------------<3>------|
|--2x5x7-------------------------|
|--2x5x7--3-2h3p2-0-5-3----------|
|--0x3x5-------------------------|


|---------------------------------------------|
|---------------------------------------------|
|---------------------------------------------|
|-10-10-10-10-10-10-9-9-10-9-12-10-9-10-7-2---|
|-10-10-10-10-10-10-9-9-10-9-12-10-9-10-7-2---|
|-8--8--8--8--8--8--7-7-8--7-10-8--7-8--5-0---|


|----------------------------------------------------------------------------------------|
|----------------------------------------------------------------------------------------|
|----------------------------------------------------------------------------------------|
|-9-9-9-9-7-7-5-5h7p-5/4-4-4-4-5-5-4-5-4-7-7-7-7-5-5-7-5---------------------------------|
|--------------------------------------------------------3-3-3-3-------------------------|
|----------------------------------------------------------------3-2-3-5-3-2-3-2-3-5-3-2-|


|--------------------------|
|--------------------------|
|----------------------<3>-|
|--------------------------|
|---------3-2h3p2-0-5-3----|
|--------------------------|

* I didn't write this tab. I found it on another website but on CGCFAD, so I fixed it to
DGCFAD because all of Cradle of Filth songs are played in DGCFAD except some songs from
the album "Damnation and a Day", where only "THe Promise of Fever", "Doberman Pharaoah"
and "The Smoke of Her Burning" are played in DGCFAD. All of the others are played in
CGCFAD. I know this information because one of the guitarists from Cradle of Filth told
me. Be sure it's right.
Comments