Cradle Of Filth - Saffrons Curse Chords & Tabs

 

Saffrons Curse Chords & Tabs

Cradle Of Filth Chords & Tabs

Version: 1 Type: Bass Tab 0 ratings
1 star 2 stars 3 stars 4 stars 5 stars
comments

Saffrons Curse Bass Tab

   
Band: Cradle Of Filth
Song: Saffron's Curse
Album: Midian
Date: June 20th, 2001

Transcribed By: Andre Roy

- comawhiteno15@hotmail.com -
---------------------------------------------

Tuning: Drop D

Riff A

|------------------------------------------------------------------------------
|------------------------------------------------------------------------------
|-------------2--2--2--2--------------2--2--2--2--0--0--0--0--2--2--2--2--0--0-
|-0--0--0--0--------------0--0--0--0-------------------------------------------

------------------|
------------------|
-0--0--2--2--2--2-|
------------------|

Riff B tremolo picking

|--------------------------------------------------------------|
|-5...4...7...5...------5..7..5..4..---------------------------|
|-----------------6-6-6--------------3--3--3--3--2--2----------|
|-----------------------------------------------------3-5-3-2/-|

Riff C Chorus (0:56)
[ Tab from: http://www.guitartabs.cc/tabs/c/cradle_of_filth/saffrons_curse_btab.html ]
|----------------------------------------------------------|
|----------------------------------------------------------|
|-5/7-5/7---------------2h3h2--5/7-5/7---------------2h3h2-|
|---------0-00-0-00-3-3----------------0-00-0-00-2-2-------|

Riff D (2:44)

|-------------------------------------------------------------------------|
|-------------------------------------------------------------------------|
|-4-----------------------2-------5-----------------------6-------3-------|
|---------4-------0-----------------------5-------3-----------------------|

Riff E (3:34)

|-----------------------------------|
|-----------------------------------|
|--------2-3---3---0---0---7-6-7-/9-|
|-0---0-----------------------------|

Riff F (4:12) tremolo picking

|------------------------------------------------------|
|------------------------------------------------------|
|---------------------------------------------7-6-7-/9-|
|-3...2.3.2...0.2.3...2.3.2...0.2.3...2.3.2...---------|


Riff G (4:37) tremolo

|------------------------------|
|------------------------------|
|---------------5......1......-|
|-0......4......---------------|


Riff A 1 time
Riff B 2 times
Riff C 4 times
Riff A 1 time
Riff B 2 times
Riff C 4 times
Riff D 2 times
Riff E 3 times
Riff F 2 times
Riff G 2 times
Riff B 3 times
Riff C 5 times
Comments