Cradle Of Filth - Queen Of Winter Throned Chords & Tabs

 

Queen Of Winter Throned Chords & Tabs

Cradle Of Filth Chords & Tabs

Version: 1 Type: Tab 0 ratings
1 star 2 stars 3 stars 4 stars 5 stars
comments

Queen Of Winter Throned Tab

   
Track: Queen of Winter, Throned
Artist: Cradle of Filth
Transcribed: Nocturnal Heartbeat (ghostwhowalks@lightspeed.bc.ca)

1. Note that there may be mistakes, and I may play some parts differently
   from others. All corrections and suggestions are welcome.

2. As always with Cradle of Filth songs, there are keyboard intros
   and interludes. I have tried my best to capture the original
   sound with the guitar.

3. All the symbols used in this tablature:

~: Vibrato
h: Hammer on
p: Pulling off
s: Slide
t: Trill
m: Palm mute

4. For those parts played more than once, please listen to the song itself.
   It should be simple to figure out how many times you need to play the
   part. And it goes the same for the case when the guitar plays thrills.

Tune down 1 step, so the sixth string becomes D.

 Intro keyboard section Part I:

 Very cool keyboard section, indeed. If you play this on a guitar, it still
 sounds awesome, especially with those open strings... There are many ways
 to play this part, but I convinced myself that it sounds best with this
 position, lots of open strings...

 Figure A:
 --------------------     Play this 4 times. If you use a little bit of
 ---------0----------     distortion, it sounds even better, well, at least
 ------0-----0-------     to me...
 ---2----------------
 --------------------
 --------------------

 Figure B:
 --------------------     Play this 4 times.
 ---------1----------
 ------2-----2-------
 ---3----------------
 --------------------
 --------------------

 Then, play Figure A again 4 times.

 Figure C:
 --------------------     Play this 4 times.
 --------------------
 --------------------
 ---1----------------
 ---------0----------
 ------2-----2-------

 Figure D: Intro keyboard section part II:
 ------0----------------------     Play this several times.
 ---------3--1--0--1--0--1----
 ---2-------------------------
 -----------------------------
 -----------------------------
 -----------------------------

 Intro guitar: While the intro keyboard part I is being played, this guitar
 part is played, too. Repeat this a couple of times.

 Figure E:
 ---------------------------------------------------------------------------
 ---------------------------------------------------------------------------
 ---------------------------------------------------------------------------
 ---------------------------------------------------------------------------
 -----7~--7--9--10--9--10--9--8~--8--10--12--12--10--8----------------------
 ---------------------------------------------------------------------------

 ---------------------------------------------------------------------------
 ---------------------------------------------------------------------------
 ---------------------------------------------------------------------------
 ---------------------------------------------------------------------------
 -----7~--7--9--10--9--10--9--6~--------------------------------------------
 ---------------------------------------------------------------------------

 Figure F: This is the end of the keyboard intro.
 ------0---------------------
 ---------3--1---------------
 ---2-------------6--5--6----
 -----------------6--5--6----
 ----------------------------
 ----------------------------

                  This is where the guitar comes in.

 Figure G:
 --------------------------------------------------
 --------------------------------------------------
 --2--2--2--2--2--2--2--3--6--5--6-----------------
 --2--2--2--2--2--2--2--3--6--5--6-----------------
 --------------------------------------------------
 --------------------------------------------------

 From now on, play Figure G several times until the vocal comes in.
 Also, please listen to the song carefully to figure out how many times you
 need to play the following parts and which parts you need to play.

 Figure H:
 ---------------------------------------------------------------------------
 ---------------------------------------------------------------------------
 ------6--5--6--5h6-------------6--5--6--5h6--------------------------------
 --3t-----------------------2t----------------------------------------------
 ---------------------------------------------------------------------------
 ---------------------------------------------------------------------------

 Figure I:
 ---------------------------------------------------------------------------
 ---------------------------------------------------------------------------
 ---------------------------------------------------------------------------
 ---7--7--7s10--10--7--7----------------------------------------------------
 ---5--5--5s8---8---5--5--5m--8m--7m--5m--7m--5m--7m--8m--------------------
 ---------------------------------------------------------------------------

 Figure J: If you use a bit of picking harmonics, it sounds a bit more
 spooky and thus, better.
 ---------------------------------------------------------------------------
 ---------------------------------------------------------------------------
 ---------------------------------------------------------------------------
 ---3t--2--2--0--0--2--2--0--0--2--2--3--3----------------------------------
 ---------------------------------------------------------------------------
 ---------------------------------------------------------------------------

 ---------------------------------------------------------------------------
 ---------------------------------------------------------------------------
 ---------------------------------------------------------------------------
 ---2t--3--3--2--2--0--0--2--2--0--0--2--2--3--3----------------------------
 ---------------------------------------------------------------------------
 ---------------------------------------------------------------------------

 Figure K:
 ---------------------------------------------------------------------------
 ---------------------------------------------------------------------------
 ---------------------------------------------------------------------------
 ---------------------------------------------------------------------------
 --2--4--4--2--4--4--4--6--7--2--4--4--4--6--7--7--6--4---------------------
 --0--2--2--0--2--2--2--4--5--0--2--2--2--4--5--5--4--2--0--0--0--0--0--0---
              						Palm mute here...

 Figure L: Here, every note is played twice except for the thrill part.
 ---------------------------------------------------------------------------
 ---------------------------------------------------------------------------
 --------------5------------------------------------------------------------
 -----7--8--7-----8--7--8-----7--8--7--5------------------------------------
 --5-----------------------8--------------8--7--8---------------------------
 ---------------------------------------------------------------------------
[ Tab from: http://www.guitartabs.cc/tabs/c/cradle_of_filth/queen_of_winter_throned_tab.html ]
 ---------------------------------------------------------------------------
 ---------------------------------------------------------------------------
 --------------5-----------5t--7t--9--10------------------------------------
 -----7--8--7-----8--7--8---------------------------------------------------
 --5------------------------------------------------------------------------
 ---------------------------------------------------------------------------

 Figure M: No doubt, the best part of the song, with Dani screaming,
 "Exalt...!" Also, play every note twice.
 ---------------------------------------------------------------------------
 ---------------------------------------------------------------------------
 ---------------------------------------------------------------------------
 -----4--5--4-----4--5--4-----4--5--4-----4--5--4---------------------------
 --2-----------2-----------0-----------0------------------------------------
 ---------------------------------------------------------------------------

 ---------------------------------------------------------------------------
 ---------------------------------------------------------------------------
 ---------------------------------------------------------------------------
 -----4--5--4--7--5--4--5-----4--5--4--5--4--5--7---------------------------
 --------------------------0------------------------------------------------
 --3------------------------------------------------------------------------

 Figure O:
 ---------------------------------------------------------------------------
 ---------------------------------------------------------------------------
 ---------------------------------------------------------------------------
 --9--10--9--7--9--10--9----------------------------------------------------
 --7--8---7--5--7--8---7--10------------------------------------------------
 -------------------------8-------------------------------------------------

 Figure P:     / Figure Q:
 --------------/------------------------------------------------------------
 --------------/------------------------------------------------------------
 --------------/------------------------------------------------------------
 --9--5--4--2--/------------------------------------------------------------
 --7--3--2--0--/--2---------------------------------------------------------
 --------------/--0---------------------------------------------------------

 Figure R: Keyboard section in the middle.
 ---------------------------------------------------------------------------
 ---------------------------------------------------------------------------
 ---------------------------------------------------------------------------
 ---------------------------------------------------------------------------
 -----7--6--9--5--7--6--3--2------------------------------------------------
 --0------------------------------------------------------------------------

 Figure S:				    / Figure Q:
 -------------------------------------------/-------------------------------
 -------------------------------------------/-------------------------------
 -------------------------------------------/-------------------------------
 ----9t--8t-----11t--7t-----9t--8t--5t--4t--/-------------------------------
 ----7t--6t-----9t---5t-----7t--6t--3t--2t--/---2---------------------------
 --0---------0-----------0------------------/---0---------------------------

 At the end of the middle keyboard section, play Figure K through
 Figure P, after playing Figure R, instead of playing Figure Q.

 Figure T:
 ---------------------------------------------------------------------------
 ---------------------------------------------------------------------------
 ---------------------------------------------------------------------------
 -----------------------------4--5--4--2------------------------------------
 --2---------4s5----------0m--2--3--2--0--5m--4m----------------------------
 --0--0m-0m--2s3--3m--3m------------------3m--2m----------------------------

 Figure U:
 ---------------------------------------------------------------------------
 ---------------------------------------------------------------------------
 ---------------------------------------------------------------------------
 -----5s4--------------5--2--5--4--2--0-------------------------------------
 --2--3s2--2m--0m--2m--3--0--------------3--2-------------------------------
 --0------------------------------------------------------------------------

 Figure V:
 ---------------------------------------------------------------------------
 ---------------------------------------------------------------------------
 ---------------------------------------------------------------------------
 ------------7--7------7------------7--7--7---------------------------------
 --2--2------5--5------5--2--2------5--5--5---------------------------------
 --0--0--0m--------0m-----0--0--0m------------------------------------------

 Figure W: Play every note twice.
 ---------------------------------------------------------------------------
 ---------------------------------------------------------------------------
 ---------------------------------------------------------------------------
 -----9--10--9---------10--9-----9--10--9---------10--9---------------------
 --7------------10--9---------7------------10--9----------------------------
 ---------------------------------------------------------------------------

 ---------------------------------------------------------------------------
 ---------------------------------------------------------------------------
 ---------------------------------------------------------------------------
 -----7--8--7--------8--7-----7--8--7--------8--7---------------------------
 --5-----------8--7--------5-----------8--7---------------------------------
 ---------------------------------------------------------------------------

 Figure W': It is basically the same as Figure W except for that you play
 every note only once, with palm mute all the way.

 Figure X:
 ---------------------------------------------------------------------------
 ---------------------------------------------------------------------------
 ---------------------------------------------------------------------------
 --4--7-----2--3------------------------------------------------------------
 --2--5--5--0--1------------------------------------------------------------
 --------3------------------------------------------------------------------

 Figure Y: This part, I am not really sure exactly how CoF play, but this is
 the way I play it:
 ---------------------------------------------------------------------------
 ---------------------------------------------------------------------------
 ---------------------------------------------------------------------------
 --9--9s11--9s7--7---9s11--9s7--5--7s9--9s7--7--9s11--9s7-------------------
 --7--7s9---7s5--5---7s9---7s5--3--5s7--7s5--5--7s9---7s5-------------------
 ---------------------------------------------------------------------------

 Figure Z: Although I know it's unneccesary to mention this here, I'll do
 it anyway, because I love this "huge, explosive ending" so much...
 ---------------------------------------------------------------------------
 ---------------------------------------------------------------------------
 ---------------------------------------------------------------------------
 ---------------------------------------------------------------------------
 --2t-----------------------------------------------------------------------
 --0t-----------------------------------------------------------------------
Comments