Cradle Of Filth - Nymphetamine Chords & Tabs

 

Nymphetamine Chords & Tabs

Cradle Of Filth Chords & Tabs

Version: 9 Type: Tab 0 ratings
1 star 2 stars 3 stars 4 stars 5 stars
comments

Nymphetamine Tab

   
Title: Nymphetamine
Artist: Cradle Of Filth
Tabbed by: Niratic

Guitar I (DAFCGC)
Guitar II (DAFCGC)


Intro:
Gtrs I & II
D|--------------------------|
A|--------------------------|
F|--------------------------|
C|-5----8----6-\3----5(*)---|
G|-3----6----6-\3----3(*)---|
C|-5----8----6-\3----5(*)---|

Verse:
Gtr I
D|--------------------------|
A|--------------------------|
F|--------------------------|
C|-5----8----6-\3----5(*)---|
G|-3----6----6-\3----3(*)---|
C|-5----8----6-\3----5(*)---|
  Lead to the river..................

Pre Chorus:
Gtr I
D|--------------------------|
A|--------------------------|
F|--------------------------|
C|-5----8----6-\3----5(*)---|
G|-3----6----6-\3----3(*)---|
C|-5----8----6-\3----5(*)---|


Pre Chorus:
Gtr II
D|--------------------------------------------------------------|
A|--------------------------------------------------------------|
F|-12-10-12----12-10-12-10-12-----12-10-12----12-10-12-10-12----|
C|----------10----------------10-----------13----------------13-|
G|--------------------------------------------------------------|
C|--------------------------------------------------------------|
  Cold was my soul..................

D|--------------------------------------------------------------|
A|--------------------------------------------------------------|
F|-12-10-12----12-10-12-10-12-----12-10-12----12-10-12-10-12----|
C|----------10----------------10-----------13----------------13-|
G|--------------------------------------------------------------|
C|--------------------------------------------------------------|  (x2)

 Chorus:
D|-----------------------------------------------------|
A|-----------------------------------------------------|
F|-----------------------------------------------------|
C|-5-5-5-5-5---3-3-3-3-3---1-1-1-1-1---3-3-3-3-3-------|
G|-5-5-5-5-5---3-3-3-3-3---1-1-1-1-1---3-3-3-3-3-------|
C|-5-5-5-5-5---3-3-3-3-3---1-1-1-1-1---3-3-3-3-3-------|  (x2)
   Bared on your tomb...............

   pm...........pm...........pm...........pm...........

D|-----------------------------------------------------|
A|-----------------------------------------------------|
F|-----------------------------------------------------|
C|-5-5-5-5-5---3-3-3-3-3---5-5-5-5-5---8-8-8-8-8-------|
G|-5-5-5-5-5---3-3-3-3-3---5-5-5-5-5---6-6-6-6-6-------|
C|-5-5-5-5-5---3-3-3-3-3---5-5-5-5-5---8-8-8-8-8-------|
  For once upon a time .....................

   pm...........pm...........pm...........pm...........

[ Tab from: http://www.guitartabs.cc/tabs/c/cradle_of_filth/nymphetamine_tab_ver_9.html ]
D|-----------------------------------------------------|
A|-----------------------------------------------------|
F|-----------------------------------------------------|
C|-5-5-5-5-5---3-3-3-3-3---1-1-1-1-1---3-3-3-3-3-------|
G|-5-5-5-5-5---3-3-3-3-3---1-1-1-1-1---3-3-3-3-3-------|
C|-5-5-5-5-5---3-3-3-3-3---1-1-1-1-1---3-3-3-3-3-------|
   I could always find........................

   pm...........pm...........pm...........pm...........


This is the solo in the second part of the chorus.

D|---------------------------------------------------------|
A|---------------------------------------15-15/1-----------|
F|---14h15171514--12-----------15--17-------------------|
C|-----------------------15h17--19-------------------------|
G|---------------------------------------------------------|
C|---------------------------------------------------------|


D|---------------------------------------------------------|
A|---------------------------------------------------------|
F|-15p14-1214-121415-14--12-17p15-14-12-----------------|
C|---------------------------------------------------------|
G|---------------------------------------------------------|
C|---------------------------------------------------------|


Interlude
D|-------------------------------------------------------------|
A|--------------------------------------8-9-8--9-8-9--6-4-6/8--|
F|-3-5-5/7-8-7--8-7-5--8-10-8--10-8-7--------------------------|
C|-------------------------------------------------------------|
G|-------------------------------------------------------------|
C|-------------------------------------------------------------| (x2)
  Six feet deep is the incesion....................................

After that:
D|------|
A|------|
F|-8-8--|
C|-8-8--|
G|-6-6--|
C|------|


D|---------|
A|---------|
F|---------|
C|-7-6-3-4-|
G|-5-4-1-2-|
C|-7-6-3-4-| (x4)
  Nymphetamine, nymphetamine.........


Pre Chorus:
D|---------------------------------------------------------------------------|
A|---------------------------------------------------------------------------|
F|12-10-12-13-12-10--12-10-12---12-10-12-10-12---12-10-12---12-10-12-10-12---|
C|--------------------------10------------------10---------13-------------13-|
G|---------------------------------------------------------------------------|
C|---------------------------------------------------------------------------|

D|--------------------------------------------------------------|
A|--------------------------------------------------------------|
F|-12-10-12----12-10-12-10-12-----12-10-12----12-10-12-10-12----|
C|----------10----------------10-----------13----------------13-|
G|--------------------------------------------------------------|
C|--------------------------------------------------------------| (x2)


A the end
D|------|
A|------|
F|-8-8--|
C|-8-8--|
G|-6-6--|
C|------|

D|-----------|
A|-----------|
F|-----------|
C|-7-6-3-4---|
G|-5-4-1-2---|
C|-7-6-3-4---|
Comments