Cradle Of Filth - Nymphetamine Chords & Tabs

 

Nymphetamine Chords & Tabs

Cradle Of Filth Chords & Tabs

Version: 7 Type: Tab 0 ratings
1 star 2 stars 3 stars 4 stars 5 stars
comments

Nymphetamine Tab

Artist: Cradle Of Filth
Song: Nymphetamine
Album: Nymphetamine
User: coke_666      CHILE
Name: Jorge Miranda
E-mail: bolak13@hotmail.com
-------------------------------------------------------------------------------
CRADLE OF FILTH - NYMPHETAMINE
-------------------------------------------------------------------------------

tuning: Drop C (CGCFAD)

Intro:

D|-----------------|
A|-----------------|
F|-----------------| (X2)
C|--0--3--8--5--0--|
G|--0--3--8--5--0--|
C|--0--3--8--5--0--|

Verses 1:

gtr I
Laid to the river.........
D|-----------------|
A|-----------------|
F|-----------------| (X4)
C|--0--3--8--5--0--|
G|--0--3--8--5--0--|
C|--0--3--8--5--0--|

gtr II
Cold was my soul......
D|--5-3-5---5-3-5---5-3-5---5-3-5---5-3-5--5-3-5---5-3-5---5-3-5--5-3-5--||
A|--------3-------3-------3-------3-------3------3-------3-------3-------||
F|-----------------------------------------------------------------------||
C|-----------------------------------------------------------------------||
G|-----------------------------------------------------------------------||
C|-----------------------------------------------------------------------||

D|--5-3-5---5-3-5---5-6-5-3-5---5-3-5---5-3-5---5-3-5--5-3-5---5-3-5--||
A|--------3-------3-----------3-------3-------3-------3-------3-------||
F|--------------------------------------------------------------------||
C|--------------------------------------------------------------------||
G|--------------------------------------------------------------------||
C|--------------------------------------------------------------------||

D|--5-3-5---5-3-5---5-3-5---5-3-5---5-3-5--5-3-5-6-5-3-5--|
A|--------3-------3-------3-------3-------3---------------|
F|--------------------------------------------------------|
C|--------------------------------------------------------|
G|--------------------------------------------------------|
C|--------------------------------------------------------|

Bared on your tomb......... (with palm/mute)
D|------------------------------------------------|
A|------------------------------------------------|
F|------------------------------------------------|
C|--7------5-----7-----3-----7-----5-----3-----5--|
G|--7------5-----7-----3-----7-----5-----3-----5--|
C|--7------5-----7-----3-----7-----5-----3-----5--|

For once upon a time...  (with palm/mute)
D|------------------------------------------------|
A|------------------------------------------------|
F|------------------------------------------------|
C|--7------5-----7-----3-----7-----5-----3-----5--|
G|--7------5-----7-----3-----7-----5-----3-----5--|
C|--7------5-----7-----3-----7-----5-----3-----5--|



Chorus:

Six feet deep is the incision...
D|----------------------1-3-1-1h3-0--5-6-5-5h6-3/1-3/5--|
A|--1--3-3--5-6-5-5h6-4---------------------------------|
F|------------------------------------------------------|
C|------------------------------------------------------|
G|------------------------------------------------------|
C|------------------------------------------------------|

Sick and weak from my condition...                      Nympheta...
D|----------------------1-3-1-1h3-0--5-6-5-5h6-3/1-3/5----------------|
A|--1--3-3--5-6-5-5h6-4-----------------------------------------------|
F|---------------------------------------------------------------5-5--|
C|---------------------------------------------------------------5-5--|
G|---------------------------------------------------------------3-3--|
C|--------------------------------------------------------------------|

mine Nymphetamine...
D|---------------------------------------------------|
A|---------------------------------------------------|
F|--------5--6--------5--6--------5--6--------5--6---|
C|--2--1--5--6--2--1--5--6--2--1--5--6--2--1--5--6--0|
G|--2--1--3--4--2--1--3--4--2--1--3--4--2--1--3--4--0|
C|--2--1--------2--1--------2--1--------2--1--------0|

verses 2:
[ Tab from: http://www.guitartabs.cc/tabs/c/cradle_of_filth/nymphetamine_tab_ver_7.html ]
Fold to my arms...
D|--5-3-5/6/5-3-5--5-3-5---5-3-5---5-3-5--5-3-5---5-3-5---5-3-5--5-3-5--||
A|---------------3-------3-------3-------3------3-------3-------3-------||
F|----------------------------------------------------------------------||
C|----------------------------------------------------------------------||
G|----------------------------------------------------------------------||
C|----------------------------------------------------------------------||

D|--5-3-5---5-3-5---5-3-5---5-6-5-3-5---5-3-5---5-3-5---5-3-5---5-3-5--||
A|--------3-------3-------3-----------3-------3-------3-------3--------||
F|---------------------------------------------------------------------||
C|---------------------------------------------------------------------||
G|---------------------------------------------------------------------||
C|---------------------------------------------------------------------||

D|--5-3-5---5-3-5---5-3-5---5-3-5---5-3-5---5-3-5---5-3-5-6-5-3-5--|
A|--------3-------3-------3-------3-------3-------3----------------|
F|-----------------------------------------------------------------|
C|-----------------------------------------------------------------|
G|-----------------------------------------------------------------|
C|-----------------------------------------------------------------|

Bared on your tomb......... (with palm/mute)
D|------------------------------------------------|
A|------------------------------------------------|
F|------------------------------------------------|
C|--7------5-----7-----3-----7-----5-----3-----5--|
G|--7------5-----7-----3-----7-----5-----3-----5--|
C|--7------5-----7-----3-----7-----5-----3-----5--|

For once upon a time...  (with palm/mute)
D|------------------------------------------------|
A|------------------------------------------------|
F|------------------------------------------------|
C|--7------5-----7-----3-----7-----5-----3-----5--|
G|--7------5-----7-----3-----7-----5-----3-----5--|
C|--7------5-----7-----3-----7-----5-----3-----5--|

Chorus:

Six feet deep is the incision...
D|----------------------1-3-1-1h3-0--5-6-5-5h6-3/1-3/5--|
A|--1--3-3--5-6-5-5h6-4---------------------------------|
F|------------------------------------------------------|
C|------------------------------------------------------|
G|------------------------------------------------------|
C|------------------------------------------------------|

Sick and weak from my condition...                      Nymphetamineeee...
D|----------------------1-3-1-1h3-0--5-6-5-5h6-3/1-3/5--||
A|--1--3-3--5-6-5-5h6-4---------------------------------||
F|------------------------------------------------------||
C|------------------------------------------------------||
G|------------------------------------------------------||
C|------------------------------------------------------||

D|--0--1-1--5-6-5-5h6h5---5-6-5--5h6-3--8-10-8--8h10h8h10--1-3/5--||
A|----------------------6-----------------------------------------||
F|----------------------------------------------------------------||
C|----------------------------------------------------------------||
G|----------------------------------------------------------------||
C|----------------------------------------------------------------||

                                        None better...          Nympheta...  
D|--0--1-1--5-6-5-5h6h5---5-6-5--5h6-3--8-10-8--8h10h8h10--1-3/5--------------|
A|----------------------6-----------------------------------------------------|
F|----------------------------------------------------------------------5--5--|
C|----------------------------------------------------------------------5--5--|
G|----------------------------------------------------------------------3--3--| 
C|----------------------------------------------------------------------------|

mine Nymphetamine...                          My nymphetamine girl.
D|---------------------------------------------------|
A|---------------------------------------------------|
F|--------5--6--------5--6--------5--6--------5--6---|
C|--2--1--5--6--2--1--5--6--2--1--5--6--2--1--5--6--0|
G|--2--1--3--4--2--1--3--4--2--1--3--4--2--1--3--4--0|
C|--2--1--------2--1--------2--1--------2--1--------0|

that's all
bye
Comments