Cradle Of Filth - Nymphetamine Chords & Tabs

 

Nymphetamine Chords & Tabs

Cradle Of Filth Chords & Tabs

Version: 3 Type: Tab 0 ratings
1 star 2 stars 3 stars 4 stars 5 stars
comments

Nymphetamine Tab

artist:cradle of filth
song:nymphetamine (fix)
tab by: Jose kaempffer

Intro and rythm
|--------------------------|
|--------------------------|
|--------------------------|
|--2----5---\10---/7----2--|
|--2----5---\10---/7----2--|
|--0----3---\8----/5----0--|


|-------------------------------------------------------------------|
|--8-7-8-5-8-7-8-7-8-5-8-7-8-7-8---8-7-8-7-8---8-7-8-7-8------------|
|--------------------------------7-----------7-----------5----------|
|-------------------------------------------------------------------|
|-------------------------------------------------------------------|
|-------------------------------------------------------------------|

|---------------------------------------------|
|--8-7-8-7-8---8-7-8-7-8---8-7-8-10-8-7-8-5---|
|------------5-----------4--------------------|
|---------------------------------------------|
|---------------------------------------------|
|---------------------------------------------|
[ Tab from: http://www.guitartabs.cc/tabs/c/cradle_of_filth/nymphetamine_tab_ver_3.html ]
in the next part there is a second guitar while doing 
the palm mute, i did not figure out.... sorry guys
|--------------------------------------------------------|
|--------------------------------------------------------|
|--------------------------------------------------------|
|--9999--/7777--\9999--/5555--\9999--/7777--/5555-\7777--|
|--9999--/7777--\9999--/5555--\9999--/7777--/5555-\7777--|
|--7777--/5555--\7777--/3333--\7777--/5555--/3333-\5555--|
   ....   ....   ....   ....   ....   ....   ....  ....

Six feet deep is the incision
|-------------------------------------------------------------------|
|-------------------------------------------------------12-13-------|
|--\7-9-9~--11-12-11~-11h12p11-9~-\12-14-12~-12h14p12-11------------|
|-------------------------------------------------------------------|
|-------------------------------------------------------------------|
|-------------------------------------------------------------------|

|-----------------------------------|
|--12~-12h13p12-10~--10-------------|
|-----------------------12h14-14b---|
|-----------------------------------|
|-----------------------------------|
|-----------------------------------|

nymphetamine nymphetamine girl....
|---------------------------------------|
|---------------------------------------|
|---------------------------------------|
|---5-5--\9--8--/5--\6--\9--8--/5--\6---|
|---5-5--\9--8--/5--\6--\9--8--/5--\6---|
|---3-3--\7--6--/3--\4--\7--6--/3--\4---|

|----------------------|
|----------------------|
|----------------------|
|---\9--8--/5--\6---2--|
|---\9--8--/5--\6---2--|
|---\7--6--/3--\4---0--|

wracked with your charm
i am circled like prey
back in the forest....

|---------------------|
|---8-7-8-10-8-7-8-5--|
|---------------------|
|---------------------|
|---------------------|
|---------------------|

sorry guys for the thing of the second guitar in the palm mute 
if you figure it out send it to me please... josekaempffer@hotmail.com
Comments