Cradle Of Filth - Nymphetamine Chords & Tabs

 

Nymphetamine Chords & Tabs

Cradle Of Filth Chords & Tabs

Version: 2 Type: Tab 0 ratings
1 star 2 stars 3 stars 4 stars 5 stars
comments

Nymphetamine Tab

   
Cradle of Filth - Nymphetamine

Tuning: C
the first string is NOT dropped
this is only for one guitar

Intro/verse
-----------------------|
-----------------------|
-----------------------|
-----------------------|
2~--3~--8--3-7-2-------|
0~--1~--6--5-5-0-------|

pre chorus
------------------------------------|
------------------------------------|
------------------------------------|
------------------------------------|
---7777--5555--7777--3333-----------|
---5555--3333--5555--1111-----------|        (listen to song for timing)
pm ......................
[ Tab from: http://www.guitartabs.cc/tabs/c/cradle_of_filth/nymphetamine_tab_ver_2.html ]
chorus
----------------------------------------------------------------------------|
----------------------------------------------------------------------------|
5-7-7-9-10-9-9h10p9-7-10-12-10-10h12p10-9-14-15-14-14h15p14-12--12-10-12-14-|
----------------------------------------------------------------------------|
----------------------------------------------------------------------------|
----------------------------------------------------------------------------|

the part after the chorus
----------------------------|-----------------------------------------------|
----------------------------|-----------------------------------------------|
----------------------------|-----------------------------------------------|
----------------------------|-----------------------------------------------|
3-3--7--6--3--4--7--6--3--4-|-5~~~~-----------------------------------------|
1-1--5--4--1--2--5--4--1--2-|-3~~~~-----------------------------------------|


during the last chorus i think one of the guitars does this

8-10-10-121312-12h13p12-10-131513-13h15p13-12-17-18-17-17h18p17-15151315-17-|
----------------------------------------------------------------------------|
----------------------------------------------------------------------------|
----------------------------------------------------------------------------|
----------------------------------------------------------------------------|
----------------------------------------------------------------------------|
Comments