Cradle Of Filth - Nymphetamine Chords & Tabs

 

Nymphetamine Chords & Tabs

Cradle Of Filth Chords & Tabs

Version: 13 Type: Tab

Nymphetamine Tab

   
----------------------------------------------------------------------------
                   NYMPHETAMINE--CRADLE OF FILTH
----------------------------------------------------------------------------
TABBED BY 
WADDELL
EMAIL-CARYNMONROE@YAHOO.COM

   THIS IS MY FIRST TAB SO PLEASE SHOW SOME RESPECT.PLEASE RATE AND ENJOY!

KEY:/=SLIDE UP   .=PALM MUTE
    \=SLIDE DOWN ()=LET NOTE RING


  intro x2
D|-------------------------|
A|-------------------------|
F|-------------------------|
C|---(0)---(3)---/8--\5--0-|
G|---(0)---(3)---/8--\5--0-|
C|---(0)---(3)---/8--\5--0-|
  verse x4
D|-------------------------|
A|-------------------------|
F|-------------------------|
C|---(0)---(3)---/8--\5--0-|
G|---(0)---(3)---/8--\5--0-|
C|---(0)---(3)---/8--\5--0-|
  verse pt.2 x2
D|---------------------------------------------------------------------|
A|-6-5-6---6-5-6-5-6---6-5-6-5-6---6-5-6-5-6---6-5-6-5-6---6-5-6-5-6---|
F|-------7-----------7-----------5-----------5-----------3-------------|
C|---------------------------------------------------------------------|
G|---------------------------------------------------------------------|
C|---------------------------------------------------------------------|

D|-------------------------------|
A|---6-5-6-5-6---6-5-6-5-6-8-6-5-|
F|-3-----------2-----------------|
C|-------------------------------|
G|-------------------------------|
C|-------------------------------|
  pre-chorus x2
D|-------------------------------------------------------------------|
A|-------------------------------------------------------------------|
F|-------------------------------------------------------------------|
C|-77777777-55555555-77777777-33333333-55-77777777-55555555-33333333-|
G|-77777777-55555555-77777777-33333333-55-77777777-55555555-33333333-|
C|-77777777-55555555-77777777-33333333-55-77777777-55555555-33333333-|
   ........ ........ ........ ........ .. ........ ........ ........
D|----------|
A|----------|
F|----------|
C|-55555555-|
G|-55555555-|
C|-55555555-|
   ........
  chorus x2
D|-------------------------------------------------------------------------|
A|-----------------------------------10-12p10-9--14-15-14--15p14-12-----14-|
F|-9---12--14-15-14--15p14-12--14-15---------------------------------12----|
C|-------------------------------------------------------------------------|
G|-------------------------------------------------------------------------|
C|-------------------------------------------------------------------------|
[ Tab from: http://www.guitartabs.cc/tabs/c/cradle_of_filth/nymphetamine_tab_ver_13.html ]
D|----------|
A|-15-14-12-|
F|----------|
C|----------|
G|----------|
C|----------|
              chorus pt.2 x4
D|---------|-----------------|
A|---------|-----------------|
F|---------|-----------------|
C|--10--10-|--14--13--10--11-|
G|--10--10-|--14--13--10--11-|
C|--10--10-|--14--13--10--11-|
  pre-verse#2         verse #2 x2
D|------------------|-------------------------------------------------------|
A|-6-5-6-5-6-8-6-5--|-6-5-6---6-5-6-5-6---6-5-6-5-6---6-5-6-5-6---6-5-6-5-6-|
F|------------------|-------7-----------7-----------5-----------5-----------|
C|------------------|-------------------------------------------------------|
G|------------------|-------------------------------------------------------|
C|------------------|-------------------------------------------------------|

D|-------------------------------------------|
A|---6-5-6-5-6---6-5-6-5-6---6-5-6-5-6-8-6-5-|
F|-3-----------3-----------2-----------------|
C|-------------------------------------------|
G|-------------------------------------------|
C|-------------------------------------------|
   pre-chorus#2 x2
D|-------------------------------------------------------------------|
A|-------------------------------------------------------------------|
F|-------------------------------------------------------------------|
C|-77777777-55555555-77777777-33333333-55-77777777-55555555-33333333-|
G|-77777777-55555555-77777777-33333333-55-77777777-55555555-33333333-|
C|-77777777-55555555-77777777-33333333-55-77777777-55555555-33333333-|
   ........ ........ ........ ........ .. ........ ........ ........
D|----------|
A|----------|
F|----------|
C|-55555555-|
G|-55555555-|
C|-55555555-|
   ........

D|------------------------------------------------------------------------|
A|-----------------------------------10-12p12-9--14-15-14--15p14-12----14-|
F|-9---12--14-15-14--15p14-12--14-15--------------------------------12----|
C|------------------------------------------------------------------------|
G|------------------------------------------------------------------------|
C|------------------------------------------------------------------------|

D|----------|
A|-15-14-12-|
F|----------|
C|----------|
G|----------|
            chorus#2 pt.2 x4
D|---------|-----------------|
A|---------|-----------------|
F|---------|-----------------|
C|--10--10-|--14--13--10--11-|
G|--10--10-|--14--13--10--11-|
C|--10--10-|--14--13--10--11-|
  outro x1
D|-------|
A|-------|
F|-------|
C|--(0)--|
G|--(0)--|
C|--(0)--|