Cradle Of Filth - Nymphetamine Chords & Tabs

 

Nymphetamine Chords & Tabs

Cradle Of Filth Chords & Tabs

Version: 1 Type: Bass Tab 1 rating
1 star 2 stars 3 stars 4 stars 5 stars
comments

Nymphetamine Bass Tab

   
Artist/Band: Cradle of Filth
Song: Nymphetamine (fix)
Album: Nymphetamine
Label: Roadrunner
Transcribed by: Francis Flores/17/male/Philippines
Type of File: Bass Tab (four string version)
Tuning: Drop-D
Date/Time: 25 June 2005 2133 HRS
Hope you guys like it. So here goes!!!!!

Bass Fig. 1 

                                                    *Fill 1
||-------------------------|------------------------------||
||*------------------------|-----------------------------*||
||*-3------------------3---|--3-----------------3--------*||
||-------1-----6--3--------|-------1-----6--3--------5-3--||

*Fill 1 was played once before the verse.

Bass Fig. 2 

   Bared on your tomb………………
|-----------------------------------------------------------------|
|-----------------------------------------------------------------|
|-----------------------------------------------------------------|
|-5-5-5-5-5-5-5-5-3-3-3-3-3-3-3-3-5-5-5-5-5-5-5-5-1-1-1-1-1-1-1-1-|
[ Tab from: http://www.guitartabs.cc/tabs/c/cradle_of_filth/nymphetamine_btab.html ]
|-----------------------------------------------------------------|
|-----------------------------------------------------------------|
|-----------------------------------------------------------------|
|-5-5-5-5-5-5-5-5-3-3-3-3-3-3-3-3-1-1-1-1-1-1-1-1-3-3-3-3-3-3-3-3-|

Bass Fig. 3 

|----------------------------------|--------------------------------|
|----------------------------------|--------------------------------|
|--3--3-3-3-3-3-3-3-3-3-3-3-3-3-3--|-1--1-1-1-1-1-1-1-1-1-1-1-1-1-1-|
|----------------------------------|--------------------------------|

|----------------------------------|--------------------------------|
|----------------------------------|--------------------------------|
|----------------------------------|--------------------------------|
|--5--5-5-5-5-5-5-5-5-5-5-5-5-5-5--|-3--3-3-3-3-3-3-3-3-3-1-3-1-3/5-|

Fill 2

|--------|
|--------|
|--------|
|--6--6--|

Bass Fig. 4
                     4x (whispering part) 
||--------------------||-------|
||*------------------*||-------|
||*--5---4---1---2---*||-3~----|
||--------------------||-------|

Structure:

Intro: Bass Fig. 1 (1x)
Verse 1: Bass Fig. 1 (4x)
Pre-Chorus: Bass Fig. 2 (2x)
Chorus: Bass Fig. 3 (2x) Fill 2
Post-Chorus: Bass Fig. 4 (1x)
Verse 2: Bass Fig. 1 (2x)
Pre-chorus: Bass Fig. 2 (2x)
Chorus: Bass Fig. 3 (4x) Fill 2
Post-chorus: Bass Fig. 4 (1x)

==========FIN==========
This work goes out to my special someone.
Comments