Cradle Of Filth - No Time To Cry Chords & Tabs

 

No Time To Cry Chords & Tabs

Cradle Of Filth Chords & Tabs

Version: 1 Type: Tab 0 ratings
1 star 2 stars 3 stars 4 stars 5 stars
comments

No Time To Cry Tab

   
Tabbed by:THE SANDMAN
Email:ryan5@iamwasted.com


tunnning: tunnning: D,G,C,F,A,D


||---------------------------|---------------------------||
||o--------------------------|--------------------------o||
||---------------------------|---------------------------||
||--4-4-----7-6-7------------|--4-4-----7-6-7------------||
||o---------------5----------|----------------2---------o||
||---------------------------|---------------------------||


Riff:A
||-------------------------------|-------------------------------||
||o------------------------------|------------------------------o||
||--8-8-8-8-8--------------------|-------------------------------||
||--6-6-6-6-6-8-9-9-9-9-9-8-8-9-6|-6-9-9-8-8-9-8-8-8-9-11-9-8-9--||
||o---------------7-7-----------4|-4-----------6-6--------------o||
||-------------------------------|-------------------------------||

[ Tab from: http://www.guitartabs.cc/tabs/c/cradle_of_filth/no_time_to_cry_tab.html ]
Riff:B
        pm...      ..             ......       .....
||----------------------------|------------------------------||
||o---------------------------|-----------------------------o||
||----------------------------|------------------------------||
||----------------------------|6--6-6-6-4-6-8-8-8-8-9-8------||
||o--6--6-6-6-----2-----------|4--4-4-4-2-4-6-6-6-6-6-6--2--o||
||---4--4-4-4-6-7-0-0-7-6-7p0-|--------------------------0---||


Riff:C
||-----------------------------|----------------------------------||
||o----------------------------|---------------------------------o||
||-----------------------------|----------------------------------||
||--6th9th8th9th---9th8th9th---|9th8th9th---8th9th11th9th8th9th---||
||o-------------7th---------4th|---------6th---------------------o||
||-----------------------------|----------------------------------||




Riff:D
      pm..   ...   ...   ...   ...   ...
||----------------------------------------------||-----------------------|
||o--------------------------------------------o||-----------------------|
||----------------------------------------------||-----------------------|
||---------------4-4-4-4-4-4--------------------||-----------------------|
||o--6-6-6-6-6-6-2-2-2-2-2-2-2-2-2-2-2-2-------o||-6---------------------|
||---4-4-4-4-4-4-------------0-0-0-0-0-0-2-3-4--||-4---------------------|
Comments