Cradle Of Filth - Nemesis Chords & Tabs

 

Nemesis Chords & Tabs

Cradle Of Filth Chords & Tabs

Version: 1 Type: Bass Tab 0 ratings
1 star 2 stars 3 stars 4 stars 5 stars
comments

Nemesis Bass Tab

   
Band: Cradle of Filth
Song : Nemesis
Album:Nymphetamine

Riff 1

F-------------------------|
C-------------------------|
G-------------------------|
C-2--4-5--4-3-6---6-------|X3

Riff 2 

F--------------------------------------------------------------------------|
C----------------------------------------------------------------------| X2
G------------3-3-3-3-3-3-3-3-3---------------------------------------------|
C-2-2-2-2-2-2------------------7-7-7-7-7-7-7-7-5-5-5-5-5-5-5-5-9-9999-9-9-9|
Riff 3

F--------------------|
C--------------------|
G--------------------|x4 
C-7-7777-99-10-7/9\7-|

Riff 4

F-------------------------------|
C-------------------------------|
G-------------------------------|
C-5-5-5-5-5-5-5-5-9-9999-9-9-9--|

Riff 5 

F----------------------|
C----------------------|
G----------------------| X2
C-7-7777-10-99-7/9\7---|

Riff 6

F--------------------------------------------------------------------------|
C----------------------------------------------------------------------|x2
G------------3-3-3-3-3-3-3-3-3---------------------------------------------|
C-2-2-2-2-2-2------------------7-7-7-7-7-7-7-7-5-5-5-5-5-5-5-5-9-9999-9-9-9|

Riff 7

F-----------------------|
C-----------------------|
G-----------------------|
C-2-4-5-8--2-4-5-3-6----|

Riff 8

F-----------------------------------------------------------------------|
C-----------------------------------------------------------------------|
G------------------------------------------------------3-653531310135---|
C-10-101010-10-101010-5-555-5-555-10-101010-10-101010-3-----------------|X3

Riff 9

F-----------------------|
C-----------------------|
G-----------------------|x2 
C-2-4-5-8--2-4-5-3-6----|

Riff 10

F----------------------------------------------|
C----------------------------------------------|
G-1-1-1-5-5-2-2-2-2-2-5-5-1-1-1-5-5-2-2--------|
C---------------------------------------3-2-5--|X4

Riff 11 
[ Tab from: http://www.guitartabs.cc/tabs/c/cradle_of_filth/nemesis_btab.html ]
F-------------------------|
C-------------------------|
G-------------------------|
C-2--4-5--4-3-6---6-------|X3

Riff 12

F--------------------------------------------------------------------------|
C----------------------------------------------------------------------|x2
G------------3-3-3-3-3-3-3-3-3---------------------------------------------|
C-2-2-2-2-2-2------------------7-7-7-7-7-7-7-7-5-5-5-5-5-5-5-5-9-9999-9-9-9|

Riff 13

F--------------------|
C--------------------|
G--------------------|x6
C-7-7777-99-10-7/9\7-|

Riff 14

F-------------------------------|
C-------------------------------|
G-------------------------------|
C-5-5-5-5-5-5-5-5-9-9999-9-9-9--|

Riff 15

F-------------------------|
C-------------------------|
G-------------------------|
C-2--4-5--4-3-6---6-------|X3


Riff 16

F-----------------------------------------------------------------------|
C-----------------------------------------------------------------------|
G------------------------------------------------------3-653531310135---|
C-10-101010-10-101010-5-555-5-555-10-101010-10-101010-3-----------------|X3

Riff 17

F-------------------------|
C-------------------------|
G-------------------------|
C-2--4-5--4-3-6---6-------|X2

Riff 18 

F----------------------------------------------|
C----------------------------------------------|
G-1-1-1-5-5-2-2-2-2-2-5-5-1-1-1-5-5-2-2--------|
C---------------------------------------3-2-5--|X2

Riff 19

F-----------------------------------------------|
C-----------------------------------------------|
G-3-3-3-7-7-4-4-4-4-4-7-7-3-3-3-7-7-4-4---------|
C---------------------------------------5-4-7---|X2

Riff 20

F-------------------------|
C-------------------------|
G-------------------------|
C-2--4-5--4-3-6---6-------|X2

Riff 21

F-------------------------------------------|
C-------------------------------------------|
G-7-9-7-9-7-9-7-9-0-2-0-2-------------------|
C-------------------------5-55-5-9-9-9-9/---|Keeps repeating until faded out

Good luck











Comments