Cradle Of Filth - Mannequin Chords & Tabs

 

Mannequin Chords & Tabs

Cradle Of Filth Chords & Tabs

Version: 1 Type: Tab 0 ratings
1 star 2 stars 3 stars 4 stars 5 stars
comments

Mannequin Tab

   
cradle of filth - mannequin

Tuning: Drop C (C G C F A D)

.=palm mute
~=vibrito
/=slide
h=hammer
p=pull off

intro
riff 1 4x
E|-------------------------------------------------------------------||
B|-------------------------------------------------------------------||
G|-------------------------------------------------------------------||
D|10----11----10----10----11----11------10------11----13---11--10----||
A|--8-8----8-8---8----8-8---8-8----11-11--11-11----11---11---11--11--||
D|-------------------------------------------------------------------||
    . .    . .   .    . .   . .    .. ..  .. ..    ..   ..   ..  ..
riff 2                                        riff 3
    2x                                        2x
E|-------|-----------------|-----------------|--------||---------------|
B|-------|-----------------|-----------------|--------||---------------|
G|-------|-----------------|-----------------|--------||---------------|
D|6-5-33-|8----------------|8----------------|--------||---------------|
A|4-3-11-|6-1-3-4----------|6-1-3-4-3-5-6363-|4-3-1-1-||6-0-3-4--------|
D|-------|-------3~-0---7\-|--------3-5-6363-|--------||--------3~0----|
                    .                   ....


E|---------------------------------||
B|---------------------------------||
G|---------------------------------||
D|---------------------------------||
A|---6-0-3-4-----------------------||
D|7\----------3-5-6363-------------||
                  ....

riff 4 x2
E|-------------------------------------------------------------------||
B|-------------------------------------------------------------------||
G|-------------------------------------------------------------------||
D|10----10----10----------------------10----10----10-----------------||
A|10----10----10----10h11p10-11h12p11-10----10----10----12-11-12-14-15|
D|10101010101010101010h11p10-11h12p11-10101010101010101012-11-12-14-15|
    ....  ....  ....                    ....  ....  ....

E|-----||
B|-----||
G|-----||
D|-----||
A|12-14||
D|12-14||

[ Tab from: http://www.guitartabs.cc/tabs/c/cradle_of_filth/mannequin_tab.html ]
riff 1 x4
riff 2
riff 3
riff 4 x2
  riff 5                     riff 6 x2 (palm mute all)
E|--------------------------|------------------|-----------------------|
B|--------------------------|------------------|-----------------------|
G|--------------------------|------------------|-----------------------|
D|4-5-----8-7--9-10/12\10\9-|------------------|-----------------------|
A|6-3-4-3-6-5--7-8-/10\8-\7-|11-10-8-11-10-8-11-10-8-11-10-8-11-10-----|
D|----4-3-------------------|------------------|------------------13---|
                             .. .. . .. .. . .. .. . .. .. . .. ....

E|---------------------------------------------------------------------|
B|---------------------------------------------------------------------|
G|---------------------------------------------------------------------|
D|---------------------------------------------------------------------|
A|------------------------------------13-11-10-13-11-10-13-11-10-13-11-|
D|12-10-13-12-10-13-12-10-13-12-10-13-12-------------------------------|
  .. .. .. .. .. .. .. .. .. .. .. .... .. .. .. .. .. .. .. .. .. ..

E|----------||
B|----------||
G|----------||
D|----------||
A|10-13-11--||
D|----------||
  .. .. ..


    riff 6 cont.                             riff 7 x2
E|------------------|-----------------------|-------------------------|
B|------------------|-----------------------|-------------------------|
G|------------------|-----------------------|-------------------------|
D|------------------|-----------------------|8-----9-----8--8-----9---|
A|15-13-12-15-13-12-15-13-12-15-13-12-15-13-|--6-6---6-6--6---6-6---6-|
D|------------------|-----------------------|-------------------------|
  .. .. .. .. .. .. .. .. .. .. .. .. .. ..    . .   . .  .   . .   .

E|--------------------------------||
B|--------------------------------||
G|--------------------------------||
D|-9-----8-----9---11-----9---8---||
A|6---9-9---9-9---9----9-9---9---9-|
D|--------------------------------||
  .   . .   . .   .    . .   .   .

riff 1 x4
riff 2 x4


***order***

riff 1 x4
riff 2 x2
riff 3 x2
riff 4 x2
riff 1 x4
riff 2
riff 3
riff 4 x2
riff 5
riff 6 x2
riff 7 x2
riff 1 x4
riff 2 x4


Downloaded from www.taborama.com

=======================================================================
Comments