Cradle Of Filth - Lord Abortion Chords & Tabs

 

Lord Abortion Chords & Tabs

Cradle Of Filth Chords & Tabs

Version: 1 Type: Bass Tab 0 ratings
1 star 2 stars 3 stars 4 stars 5 stars
comments

Lord Abortion Bass Tab

cradle of filth "lord abortion"
from midian
tab by jez w.
(my fave cradle song)
main riff:
-------------------------|
-------------------------|
-------------------------|
-5555----8888----6666----|


second riff:
|-----------------------|
|-----------------------|
|-----------------------|
|-0-0-6-0-0-6-0-0-6-7-6-|
(4-string)
|------------------------------------------------------------|
|------------------------------------------------------------|
|--------------------------8888-10101010-11111111-7777-------|
|-7777-8888--9999-10101010-----------------------------06-06-|


|------------------------------------|------------------------|
|------------------------------------|------------------------|
|-7/5\7/8-8\7/8-10-10-8-5-7-7\5/7-3-5|-0-----8-------7--------|
|------------------------------------|-------------------8----|

[ Tab from: http://www.guitartabs.cc/tabs/c/cradle_of_filth/lord_abortion_btab.html ]
|------------------------------------|------------------------|
|------------------------------------|------------------------|
|------------------------------------|-0-----8-------7--------|
|-5-5\3/5-6-6\5/6-8-8-6-3-5-5\3/5-0-1|-------------------8----||-------------------------------------------------------------
|----------------------------6-5------------------------------
|-------------------------4-------7---------------------------
|-0-0-0-3-0-0-5-0-0-3-5-6-------------0-0-0-3-0-0-5-0-0-3-5-6-


------------------|
------------------|
-----8-7----------|
-6--------9-------|

|----------------------------------|
|----------------------------------|
|-7777--6666--5555--7777-6666-8888-|
|----------------------------------|keyboard interlude goes here


End riff
|-------------------------------|
|-------------------------------|
|-----------------------------7-|
|-0-6-0-6-0-6-0-6-0-6-0-6-0-6---|
Comments