Cradle Of Filth - Honey And Sulphur Chords & Tabs

 

Honey And Sulphur Chords & Tabs

Cradle Of Filth Chords & Tabs

Version: 1 Type: Bass Tab 0 ratings
1 star 2 stars 3 stars 4 stars 5 stars
comments

Honey And Sulphur Bass Tab

   
x4
F|-------------------------------------------------------|
C|-------------------------------------------------------|
G|---------7/------------5-5-5---------6/----------------|
D|-000-000-------000-000-------000-000-------55556-33335-|

F|-------------------------------------------------------|
C|-------------------------------------------------------|
G|---------7/------------5-5-5---------6/----------------|
D|-000-000-------000-000-------000-000-------00001-00001-|

x4
F|----------------------------------|
C|---------9999------------8888-----|
G|-77777777----777788888888----8888-|
D|----------------------------------|

F|--------------------|
C|--------------------|
G|--------------------|
D|-585847475858710710-|

x4
F|--------------------------------------------------|
C|--------------------------------------------------|
G|--------------------------------------------5---4-|
D|-1-2-5-4----------------1-2-5-4----5-3----3---3---|

x4
F|----------------------------------|
C|----------------------------------|
G|----------------------------------|
D|-44445555777788887777888877775555-|

x2
F|-------------------------------------------------------|
C|-------------------------------------------------------|
G|---------7/------------5-5-5---------6/----------------|
D|-000-000-------000-000-------000-000-------55556-33335-|

F|-------------------------------------------------------|
C|-------------------------------------------------------|
G|---------7/------------5-5-5---------6/----------------|
D|-000-000-------000-000-------000-000-------00001-00001-|
[ Tab from: http://www.guitartabs.cc/tabs/c/cradle_of_filth/honey_and_sulphur_btab.html ]
x2
F|-------------------------------------------------------------|
C|-------------------------------------------------------------|
G|-7----222222-3----555555-7----222222-3--55555555\10----------|
D|-----------------------------------------------------000-000-|

x2
F|----------------------------------------------------------------------|
C|-------------------7-------------------------------7----109797--------|
G|-7--5-7-7-\9-10-9---1091097910-7--5-7-7-\9-10-9-10---10-------1097910-|
D|----------------------------------------------------------------------|

F|-----|
C|-----|
G|-----|
D|-4-4-|

x2
F------------------------------------|
C------------------------------------|
G----------------------------7-6-----|
D-58584747585871071058584747-----8-7-|

F--------------------------------------|
C-----------------------------------69-|
G------------------------------81158---|
D-58584747585871071058584747710--------|

x4
F|----------------------------------|
C|---------9999------------8888-----|
G|-77777777----777788888888----8888-|
D|----------------------------------|

F|--------------------|
C|--------------------|
G|--------------------|
D|-585847475858710710-|

x4
F|--------------------------------------------------|
C|--------------------------------------------------|
G|--------------------------------------------5---4-|
D|-1-2-5-4----------------1-2-5-4----5-3----3---3---|

Until the end
F|-------------------------------------------------------|
C|-------------------------------------------------------|
G|---------7/------------5-5-5---------6/----------------|
D|-000-000-------000-000-------000-000-------55556-33335-|

F|-------------------------------------------------------|
C|-------------------------------------------------------|
G|---------7/------------5-5-5---------6/----------------|
D|-000-000-------000-000-------000-000-------00001-00001-|
Comments