Cradle Of Filth - Her Ghost In The Fog Chords & Tabs

 

Her Ghost In The Fog Chords & Tabs

Cradle Of Filth Chords & Tabs

Version: 6 Type: Tab 0 ratings
1 star 2 stars 3 stars 4 stars 5 stars
comments

Her Ghost In The Fog Tab

tuning DADGBE


intro
E-------------------------------------------------------------------------------
B-------------------------------------------------------------------------------
G-------------------------------------------------------------------------------
D///////---000000000000000-4444444444444444-3333333333333333-222222224----------
A///////---000000000000000-4444444444444444-3333333333333333-222222224----------
D///////---000000000000000-4444444444444444-3333333333333333-222222224----------
 pick scrape

verse
E-------------------------------------------------------------------------------
B-------------------------------------------------------------------------------
G-----------------------333666555222333666555222--------------------------------
D-0000000000000000000000------------------------3333333333333333-22222222-------
A-0000000000000000000000------------------------3333333333333333-22222222-------
D-0000000000000000000000------------------------3333333333333333-22222222-------
[ Tab from: http://www.guitartabs.cc/tabs/c/cradle_of_filth/her_ghost_in_the_fog_tab_ver_6.html ]
chorus
E-------------------------------------------------------------------------------
B-------------------------------------------------------------------------------
G-------------------------------------------------------------------------------
D-7xxxx7xxxx5xxxx5xxxx------------------7xxxx7xxxx5xxxx5xxxx-----778787878------
A-7xxxx7xxxx5xxxx5xxxx79875-77778675645-7xxxx7xxxx5xxxx5xxxx79875---------------
D-7xxxx7xxxx5xxxx5xxxx------------------7xxxx7xxxx5xxxx5xxxx--------------------
   x=palm muting

bridge p.1
E-------------------------------------------------------------------------------
B-------------------------------------------------------------------------------
G-------------------------------------------------------------------------------
D-0232-0232-232-232-232-232-2325423---------------------------------------------
A----------0---0---1---1---3----------------------------------------------------
D-------------------------------------------------------------------------------

bridge p.2
E-------------------------------------------------------------------------------
G-------------------------------------------------------------------------------
B-------------------------------------------------------------------------------
D-6655544555665556789898-6655544555665559---------------------------------------
A-6655544555665556789898-6655544555665559---------------------------------------
D-6655544555665556789898-6655544555665559---------------------------------------

ending
E-------------------------------------------------------------------------------
B-------------------------------------------------------------------------------
G-------------------------------------------------------------------------------
D------------------0------------------------------------------------------------
A-12-11-10-12-9-12-0------------------------------------------------------------
D------------------0------------------------------------------------------------

This is how it sounds to me....
Comments