Cradle Of Filth - Her Ghost In The Fog Chords & Tabs

 

Her Ghost In The Fog Chords & Tabs

Cradle Of Filth Chords & Tabs

Version: 1 Type: Bass Tab 0 ratings
1 star 2 stars 3 stars 4 stars 5 stars
comments

Her Ghost In The Fog Bass Tab

   
Song:   Her Ghost In The Fog
Album:  Midian 
Artist: Cradle of Filth
Tuning: D,A,D,G (drop D)

This is my tab for The BEST C.O.F song ever

*= let note ring
~=if the amount of times the note is played is not availible, I
  will put this in place to signify that note note is being 
  played god knows how many times.
()= since notes on normal D-string can also be played on the 
    detuned E, notes in parenthesis are where I couldnt decide 
    if the low note or high note sounded better.

Piano does little intro thing.

Riff A |0:20||x2| (after guitar does that long slide)
G---------------------------------------------------------------
D------------------4~-------------3~-------------2~-------------
A---3~----------------------------------------------------------
D---------------------------------------------------------------

Riff B |0:50||x2| (remember you can play either the low or high)
G---------------------------------------------------------------
D--------------(5-5)-(3-3)--------------------------------------
A---5-5---3-3---------------------------------------------------
D--------------(5-5)-(3-3)--------------------------------------

At 1:05 There is a verse part where I think there might be some 
bass but when I play this song with my band I dont play anything 
and it sounds fine.

Fill #1 |1:29||x1|
G---------------------------------------------------------------
D---------------------------------------------------------------
A---1*----0-3-0-------------------------------------------------
D---------------4-----------------------------------------------

Riff C |1:31||x4|
G---------------------------------------------------------------
D-------------------6-8-6-5-6-5---------------------------------
A---5---5---5---5---------------8-7-7-7-8-----------------------
D---------------------------------------------------------------

Riff B |2:01||x4|
[ Tab from: http://www.guitartabs.cc/tabs/c/cradle_of_filth/her_ghost_in_the_fog_btab.html ]
I have two versions for Riff D, some people prefer to only play
the root notes here and some people prefer to play the notes 
along with the guitar. However you want to play it is up to you.
Riff D (version 1:root notes) |2:31||x4|
G---------------------------------------------------------------
D---(0-0)-------------------------------------------------------
A----------0-0---1-1---3-3--------------------------------------
D---(0-0)-------------------------------------------------------

Riff D (version 2:playing w/ guitar) |2:31||x4|
G---------------------------------------------------------------
D---0-2-3-2-0-2-3-2---2-3-2---2-3-2----2-3-2----2-3-2-----------
A-------------------0-------0--------1--------1-----------------
D---------------------------------------------------------------

RIff D (playing w/ guitar) cont.
G---------------------------------------------------------------
D-----2-3-2-5-3-2-3---------------------------------------------
A---3-----------------------------------------------------------
D---------------------------------------------------------------

Riff E |3:01||x1|
G---------------------------------------------------------------
D---------------------------------------------------------------
A---------------------------------------------------------------
D---655--355--655--8989--655--355--655--8*----------------------
            
Riff E cont.
G---------------------------------------------------------------
D---------------------------------------------------------------
A---------------------------------------------------------------
D---655--355--655--8989--655--355--655--9*----------------------

Riff A |3:16||x2|

Bass Solo |3:46|(whole solo)|x1|
G------------------------------------------10*------------------
D-------------00----------11*--------00-12----------------------
A----------------12-13-12---------------------------------------
D---0*----------------------------------------------------------

Bass Solo cont.
G----------------------5*--------------------/12*--10h12p10--9*-
D--------------------5----------------1*------------------------
A---1*---0-3-0-----3------------2-3-2---------------------------
D--------------4-0-----------00---------------------------------

Fill #1 |4:10||x1|

Riff C |4:12||x4|

Riff F |4:42||x4|
G---------------------------------------------------------------
D--------------(3-3)-(1-1)--------------------------------------
A---3-3---1-1---------------------------------------------------
D--------------(3-3)-(3-3)--------------------------------------

Riff B |5:12||x2|

Either Riff D |5:27||x3|

Ending Riff |5:50||x1|
G---------------------------------------------------------------
D--(0-0)--------------------------------------------------------
A---------0-0---1-1---3*-1*--0-1-1*--0*--3*---------------------
D--(0-0)--------------------------------------------------------

Tabbed by Pete 
Comments