Cradle Of Filth - Heaven Torn Asunder Chords & Tabs

 

Heaven Torn Asunder Chords & Tabs

Cradle Of Filth Chords & Tabs

Version: 1 Type: Bass Tab 0 ratings
1 star 2 stars 3 stars 4 stars 5 stars
comments

Heaven Torn Asunder Bass Tab

 Heaven Torn Asunder (bass tab) - Cradle of Filth
 `'`'`'`'`'`'`'`'`'`'`'`'`'`'`'`'`'`'`'`'`'`'`'`'
 Tune down one step to play along with the recording. Once more I shall point
 out that I'm *not* a bassist; I figured this out on my trusty six-string, so
 forgive any errors. Apart from one or two places, I haven't indicated how
 many times to play each note as Robin plays the same riffs differently in
 various parts of the song. And besides, any bassist who can't improvise his
 way after reading this tab isn't worth what he paid for his plectrum.

 And on that scathing note (seriously no pun intended), I'll leave. Praise,
 flames, corrections and requests all to brunor@sggs.wcape.school.za


  Riff 1:
 |-----------------------------------------------------------------------|
 |----------------------------------------------5------------------------|
 |-5--0-4--0-5--5-7-8-7-5-4--4-5-7-5-4-5--5-7-8---8-7--777-8-888-7-777-5-|
 |-----------------------------------------------------------------------|

  Riff 2: "Rise, ablaze, libidinous..."
 |---------------------|
 |---5----5------------|
 |-5----8---8-7--8-7-5-|
 |---------------------|

  Riff 3: "Stormchoirs gather..."
 |-----------------------------------------------------------|
 |-----------------------------------------------------------|
 |-555555-555555-555555-555-000-444444-444444-444444-444-000-|
 |-----------------------------------------------------------|

  Riff 4: "We are as a plague..."
 |-----------------------|
 |---------5-------------|
 |-5----5----8-7-8-7-8-7-|
 |----8------------------|
[ Tab from: http://www.guitartabs.cc/tabs/c/cradle_of_filth/heaven_torn_asunder_btab.html ]
  Riff 5: "Attack!"
 |--------------------------------------------------------|
 |--------------------------------------------------------|
 |-7--5-7--5-7-8-7-5--7-8-7-5--4----4----4-5-4----4-5-4---|
 |--------------------------------7----7-------7--------7-|

  Riff 6: "Wreak atrocities..."
 |-----------------------------------------------------------|
 |------------------------------------5-7-5------------5-----|
 |-7--5-7--5-7-8-7-5--7-8-7-5--7--7-8-------8-5--5-7-8---8-7-|
 |-----------------------------------------------------------|

  Riff 7: "Artemis, spread the bliss..."
 |-------------------------------|
 |-----------7-------------------|
 |-7--9--10----10-9-7------------|
 |---------------------10--8--10-|

  Riff 8: "Attack!"
 |------------------------------------|
 |--------------88-----------------99-|
 |-77-7-88-77-7----99-9-10-10-99-9----|
 |------------------------------------|

  Riff 9:
 |-----------------------------------------------------------|
 |------------------------------------5----------------------|
 |-5--5-7-8-7-5-4--4-5-7-5-4-5--5-7-8---8-7-8-7-4--4-5-7-5-4-|
 |-----------------------------------------------------------|

  Riff 10: "The most August sorcerers of Hades..."
 |--------------------------------------------|
 |-----------555----5-------------------------|
 |-8888-8888-----8----8--7777-7777-888-7--8-7-|
 |--------------------------------------------|

  Riff 11: "From this ransacked celestial temple..."
 |----------------------------------|
 |----------------------------------|
 |-8--7-5----------------888-7--8-7-|
 |---------8-7-5555-5555------------|

 Song structure:
  - Riff 1 x1
  - Riff 2 x4
  - Riff 3 x4
  - Riff 4 x7
  - Riff 5 x2
    Riff 6 x1
    Riff 5 x4
  - Riff 7 x3
  - Riff 4 x4
  - Riff 8 x1
  - Riff 5 x2
    Riff 6 x1
    Riff 5 x2
 (interlude starts)
  - Riff 9 x1
  - Riff 10 x2
  - Riff 11 x1
  - Riff 9 x1
  - Riff 10 x2
  - Riff 11 x1
  - Riff 2 x4
 (interlude ends)
  - Riff 3 x4
  - Riff 6 x3
Comments