Cradle Of Filth - Hallowed Be Thy Name Chords & Tabs

 

Hallowed Be Thy Name Chords & Tabs

Cradle Of Filth Chords & Tabs

Version: 6 Type: Tab 0 ratings
1 star 2 stars 3 stars 4 stars 5 stars
comments

Hallowed Be Thy Name Tab

   
Band: Cradle Of Filth
Song:Iron Maiden Cover-Hallowed Be Thy Name
This is the first thing i've ever tabbed and submitted, 
if there are any mistakes tellme. It might not be totally 
right but this is how i play it...      Thank you carly for everything
My Email: koumori_dragon@hotmail.com,


Intro (x10)
e|-5-------------------5-----------------|
B|---8-6---5-6-5---5-----8-6---5-6-5-----|
G|---------------7-------------------7-6-|
D|---------------------------------------|
A|---------------------------------------|
E|---------------------------------------|

Part 1 (x1)
e|-5-------------------5-----------------|
B|---8-6---5h6p5---5-----8-6---5h6p5-----|
G|---------------7-------------------7-6-|
D|---------------------------------------|
A|---------------------------------------|
E|---------------------------------------|

e|-5-------------------------------------|
B|---8-6---5h6p5---5---6h8p6h8p6h8p6h8p6-|
G|---------------7-----------------------|
D|---------------------------------------|
A|---------------------------------------|
E|---------------------------------------|

e|-5-------------------5-----------------|
B|---8-6---5h6p5---5-----8-6---5h6p5-----|
G|---------------7-------------------7-6-|
D|---------------------------------------|
A|---------------------------------------|
E|---------------------------------------|

e|-5------------------|--------|---------|
B|---8-6---5h6p5---5--|--------|---------|
G|---------------7----|--------|---------|
D|--------------------|--------|-///////-|
A|--------------------|--0--0--|-/-pik-/-|
E|--------------------|--0--0--|-/slide/-|
                      palm mute
Part 2 (x8)
e|---------------------------|
B|---------------------------|
G|---------------------------|
D|---------------5-----------|
A|-5h7p5h7h8p7h8---8p7h8p7p5-|
E|---------------------------|

Part 3 (x2)
e|-------------------|
B|-------------------|
G|-------------------|
D|-7-----------------|
A|-5----7-8----5-10--|
E|------5-6----3-8---|

e|----------------------------------|
B|----------------------------------|
G|----------------------------------|
D|-----7----------------------------|
A|-7---5-x-7-x-8--5h7-8p7p5---------|
E|-5-----x-5-x-6--------------------|

Part 4 (x2)
e|---------------------------------|
B|---------------------------------|
G|---------------------------------|
D|-7xx-7xx-7xx-7xx-----------------|
A|-5xx-5xx-5xx-5xx-8xx-8xx-8xx-8xx-|
E|-----------------6xx-6xx-6xx-6xx-|

e|---------------------------------------------|
B|---------------------------------------------|
G|---------------------------------------------|
D|-----------------------7-x-------------------|
A|-10xx-10xx-10xx-10xx---5-x-7-x-8---5h7-8p7p5-|
E|-8-xx-8-xx-8-xx-8-xx-------5-x-6-------------|

Part 2 (x8)
e|---------------------------|
B|---------------------------|
G|---------------------------|
D|---------------5-----------|
A|-5h7p5h7h8p7h8---8p7h8p7p5-|
E|---------------------------|

Part 5 (x4)
e|---------------------------------------------|
B|---------------------------------------------|
G|---------------------------------------------|
D|-----------7~------------7-------------7-----|
A|-5---5h7h8---8p7-5---7h8---8p7-5---7h8---8-7-|
E|---------------------------------------------|

Part 6 (x2)
e|-------------------------------------------|
B|-------------------------------------------|
G|---------5~------------5-------------5-----|
D|-----5h7---7p5-----5h7---7p5-----5h7---7p5-|
A|-8-------------8-------------8-------------|
E|-------------------------------------------|

e|-------------------------------------------|
B|-------------------------------------------|
G|---------7~------------5-------------5-----|
D|-----5h7---7p5-----5h7---7p5-----5h7---7p5-|
A|-8-------------8-------------8-------------|
E|-------------------------------------------|
[ Tab from: http://www.guitartabs.cc/tabs/c/cradle_of_filth/hallowed_be_thy_name_tab_ver_6.html ]
Part 4 (x4)
e|-------------------------------------------------------|
B|-------------------------------------------------------|
G|-------------------------------------------------------|
D|-7-7-7-7---------------------------7---7---------------|
A|-5-5-5-5---8-8-8-8---10-10-10-10---5---5---8p7p5-8p7p5-|
E|-----------6-6-6-6---8--8--8--8------------------------|

Part 5 (x4)
e|---------------------------------------------|
B|---------------------------------------------|
G|---------------------------------------------|
D|-----------7~------------7-------------7-----|
A|-5---5h7h8---8p7-5---7h8---8p7-5---7h8---8-7-|
E|---------------------------------------------|

Part 7 (x16)
e|---5-----|
B|-----5-6-|
G|-7-------|
D|---------|
A|---------|
E|---------|

Part 8 (x4)
e|------------------------------|
B|------------------------------|
G|------------------------------|
D|-----------7------------------|
A|-5h7p8h7p8---8p7h8p7p5--5--7--|
E|------------------------3--5--|

Part 9 (x2)

e|------------------------------------------|
B|------------------------------------------|
G|------------------------------------------|
D|-9-99-9---9-99-9---99-9-9-----------------|
A|-7-77-7---7-77-7---77-7-7----8p7p5--------|
E|-----------------------------------8/3----|

e|---------------------------------------|---------|
B|---------------------------------------|---------|
G|---------------------------------------|---------|
D|-7-77-7---7-77-7---77-7-7--------------|-///////-|
A|-5-55-5---5-55-5---55-5-5---8p7p5------|-/-pik-/-|
E|----------------------------------8/3--|-/slide/-|
                                          |Play this the second time
Solo:
I\'ll post it when i know what the actuall solo is...
i just improvise as to what i think it may be sometimes

Part 10
e|-------------------------------------------------|
B|-------------------------------------------------|
G|-------------------------------------------------|
D|-7-7-77-77-7-5--7-77-77-7-7-----3~-------3~------|
A|-5-5-55-55-5-3--5-55-55-5-5---5---5-3--5---5-3-5-|
E|-------------------------------------------------|

(x2)
e|-------------------------------------------------|
B|-------------------------------------------------|
G|--------------------------------3~-------3~------|
D|-7-7-77-77-7-5--7-77-77-7-5---5---5-3--5---5-3-5-|
A|-5-5-55-55-5-3--5-55-55-5-3----------------------|
E|-------------------------------------------------|

e|------------------------------|
B|------------------------------|
G|------------------------------|
D|-7-7-77-77-7-5--7-77-7777777--|
A|-5-5-55-55-5-3--5-55-5555555--|
E|------------------------------|

Part 2 (x11)
e|---------------------------|
B|---------------------------|
G|---------------------------|
D|---------------5-----------|
A|-5h7p5h7h8p7h8---8p7h8p7p5-|
E|---------------------------|

Part 11 (x1)
e|----------------------|
B|----------------------|
G|----------------------|
D|-7--------------------|
A|-5--7--8---5h7-8p7p5--|
E|----5--6--------------|

Part 2 (x3)
e|---------------------------|
B|---------------------------|
G|---------------------------|
D|---------------5-----------|
A|-5h7p5h7h8p7h8---8p7h8p7p5-|
E|---------------------------|

Part 11 (x1)
e|----------------------|
B|----------------------|
G|----------------------|
D|-7--------------------|
A|-5--7--8---5h7-8p7p5--|
E|----5--6--------------|

Part 12 (x2)
e|-------------------------------------------------------|
B|-------------------------------------------------------|
G|-------------------------------------------------------|
D|-7-77-7-7-77---5-55-5-5-55---7-77-7-7-77---9-99-9-9-99-|
A|-7-77-7-7-77---5-55-5-5-55---7-77-7-7-77---9-99-9-9-99-|
E|-5-55-5-5-55---3-33-3-3-33---5-55-5-5-55---7-77-7-7-77-|

Part 7 (x16{normal pace}, x3{slowly}, x5{very fast}, x3{slowly})
e|---5-----|
B|-----5-6-|
G|-7-------|
D|---------|
A|---------|
E|---------|

Outro
e|------------|
B|------------|
G|-7777--7777-|
D|-7777--7777-|
A|-5555--5555-|
E|------------|

toss me some comments or corrections if you got any, cause i think this may just be the
most accurate hallowed be thy name tab, just because i have found nothing but c*a*, and
people copying that c*a* for their own work.
Comments