Cradle Of Filth - Hallowed Be Thy Name Chords & Tabs

 

Hallowed Be Thy Name Chords & Tabs

Cradle Of Filth Chords & Tabs

Version: 1 Type: Tab 4 ratings
1 star 2 stars 3 stars 4 stars 5 stars
comments

Hallowed Be Thy Name Tab

   
Band: Cradle Of Filth
Song: Hallowed Be Thy Name
Album: Bonus Trucks
Tabbed by:FERAS NMRI
E-mail: FXNMRI@hotmail.com
Standard tuning.

Riff 1 - acoustic guitar intro

x 10
|-5-------------------5-----------------|
|---8-6---5-6-5---5-----8-6---5-6-5-----|
|---------------7-------------------7-6-|
|---------------------------------------|
|---------------------------------------|
|---------------------------------------|

Riff 2

x 1
|-5-------------------5-----------------|
|---8-6---5h6p5---5-----8-6---5h6p5-----|
|---------------7-------------------7-6-|
|---------------------------------------|
|---------------------------------------|
|---------------------------------------|

|-5-------------------------------------|
|---8-6---5h6p5---5---6h8p6h8p6h8p6h8p6-|
|---------------7-----------------------|
|---------------------------------------|
|---------------------------------------|
|---------------------------------------|

|-5-------------------5-----------------|
|---8-6---5h6p5---5-----8-6---5h6p5-----|
|---------------7-------------------7-6-|
|---------------------------------------|
|---------------------------------------|
|---------------------------------------|

|-5-------------------------------------|
|---8-6---5h6p5---5---------------------|
|---------------7-----------------------|
|---------------------------------------|
|---------------------------------------|
|---------------------------------------|

Riff 2 (chords)
|-----------------------------------------------------------------|
|-----------------------------------------------------------------|
|-----------------------------------------------------------------|
|-7---x-x-7---x-x-7---x-x-7---------------------------------------|
|-5---x-x-5---x-x-5---x-x-5---x-x-8---x-x-8---x-x-8---x-x-8---x-x-|
|-----------------------------x-x-6---x-x-6---x-x-6---x-x-6---x-x-|
 1       2       3       4       1       2       3       4

|-----------------------------------------------------------------|
|-----------------------------------------------------------------|
|-----------------------------------------------------------------|
|---------------------------------7---x-x-7---x-x-7---x-x-7-------|
|-10--x-x-10--x-x-10--x-x-10--x-x-5---x-x-5---x-x-5---x-x-5-------|
|-8---x-x-8---x-x-8---x-x-8---x-x---------------------------------|
 1       2       3       4       1       2       3       4


Riff 3
[ Tab from: http://www.guitartabs.cc/tabs/c/cradle_of_filth/hallowed_be_thy_name_tab.html ]
x 8
|---------------------------------|
|---------------------------------|
|---------------------------------|
|-----------5-----5-7-------------|
|-5-8-7---8-----8-------8-7-8-7-5-|
|---------------------------------|


Riff 4

x 2
|-----------------------------------------------------------------|
|-----------------------------------------------------------------|
|-----------------------------------------------------------------|
|-7---------------------------------------------------------------|
|-5-----------------------------7-8-----------------------------5-|
|-------------------------------5-6-----------------------------3-|

 1 e + a 2 e + a 3 e + a 4 e + a 1 e + a 2 e + a 3 e + a 4 e + a

|-----------------------------------------------------------------|
|-----------------------------------------------------------------|
|-----------------------------------------------------------------|
|---------------------------------7-------------------------------|
|-10----------------------------7-5-------7-------8---5h7-8p7p5---|
|-8-----------------------------5---------5-------6---------------|

 1 e + a 2 e + a 3 e + a 4 e + a 1 e + a 2 e + a 3 e + a 4 e + a


** Riff 2 ** /w variation

** Riff 3 **

Riff  5

x 4
|-------------------------------------------------|
|-------------------------------------------------|
|-------------------------------------------------|
|-----------7---------------7---------------5-----|
|-5---5-7-8-----8-7-5---7-8-----8-7-5---7-8---8-7-|
|-------------------------------------------------|

Riff 5a

x 2 /w Riff 5 x 4
|-----------------------------------------------|
|-----------------------------------------------|
|---------5---------------5---------------5-----|
|-----5h7-----7p5-----5h7-----7p5-----5h7---7-5-|
|-8---------------8---------------8-------------|
|-----------------------------------------------|

|-----------------------------------------------|
|-----------------------------------------------|
|---------7---------------5---------------5-----|
|-----5h7-----7p5-----5h7-----7p5-----5h7---7-5-|
|-8---------------8---------------8-------------|
|-----------------------------------------------|

** Riff 2 **

** Riff 5 **

Riff 6

x 16
|---5-----|
|-----5-6-|
|-7-------|
|---------|
|---------|
|---------|
Comments