Cradle Of Filth - Gilded Cunt Chords & Tabs

 

Gilded Cunt Chords & Tabs

Cradle Of Filth Chords & Tabs

Version: 3 Type: Tab 0 ratings
1 star 2 stars 3 stars 4 stars 5 stars
comments

Gilded Cunt Tab

Song: gilded cunt
Artist: cradle of filth
Tab by: jose kaempffer

Repeat many x as needed
D------------------------------|
G------------------------------|
C-------------------------5----|
F--4-4---------4-4--------5----|
A--4-4---------4-4--------3----|
D--2-2--33333--2-2--33333------|


D-----------------------------------------|
G-----------------------------------------|
C-------------8---------------------------|
F--5-5-5-5-------5--7--8--8-8-9-9-8-8-9-9-|
A--5-5-5-5----------------8-8-9-9-8-8-9-9-|
D--3-3-3-3----------------6-6-7-7-6-6-7-7-|
[ Tab from: http://www.guitartabs.cc/tabs/c/cradle_of_filth/gilded_cunt_tab_ver_3.html ]
D------------------------------------------------------------------|
G-------------------8---------8----------10------------------------|
C---7--9-10-7--9-10---10-9-10----10-9-10----10-9-10----------------|
F------------------------------------------------------------------|
A------------------------------------------------------------------|
D------------------------------------------------------------------|

D-------------------------------------------------------------------|
G-------------------8---8-------------------------------------------|
C---7--9-10-7--9-10---5---9-7-9-10-9---------------------------4----|
F--------------------------------------5--4--5--4--5--4--5--4--4--4-|
A--------------------------------------5--4--5--4--5--4--5--4--2--4-|
D--------------------------------------3--2--3--2--3--2--3--2-----2-|

D-------------------------------|
G-------------------------------|
C--------------------------5--4-|
F--4--4-5--4--4-5--4--4-5--5--4-|
A--4--4-5--4--4-5--4--4-5--3--2-|
D--2--2-3--2--2-3--2--2-3-------|
Comments