Cradle Of Filth - Gilded Cunt Chords & Tabs

 

Gilded Cunt Chords & Tabs

Cradle Of Filth Chords & Tabs

Version: 1 Type: Bass Tab 0 ratings
1 star 2 stars 3 stars 4 stars 5 stars
comments

Gilded Cunt Bass Tab

   
Artist:Cradle of Filth
Song:Gilded Cunt
Album; Nymphetamine
Tuning:FCGC 
this tab is 100% correct

Riff 1 (Verse part 1)

F|-----------------|
C|-----------------|
G|-----------------|
C|-3-3-4-4-3-3-4-6-|

Riff 2 (verse part 2)
F|-----------------|
C|-----------------|
G|-----------------|
C|-3-3-4-4-3-3-6-4-|

Riff 3 (Breakdown)
[ Tab from: http://www.guitartabs.cc/tabs/c/cradle_of_filth/gilded_cunt_btab.html ]
F|---------------------|
C|---------------------|
G|-5-7-8-5---8-7---8-7-|
C|---------8-----7-----|

Riff 4 (crazy Drum Bit)

F|---------|
C|---------|
G|---------|
C|-99999-8-|

Riff 5 (outro part 1)

F|---------|---------|
C|---------|---------|
G|---------|---------|
C|-4-4-6-5-|-4-4-6-3-|

Riff 6 (outro part 2)

F|---------------|
C|---------------|
G|---------------|
C|-3-6-5-4-6-7-8-|

Enjoy
Comments