Cradle Of Filth - Dusk And Her Embrace Chords & Tabs

 

Dusk And Her Embrace Chords & Tabs

Cradle Of Filth Chords & Tabs

Version: 2 Type: Bass Tab

Dusk And Her Embrace Bass Tab

   
Artist: Cradle Of Filth
Song: Dusk and Her Embrace
Album: Dusk and Her Embrace

Tuning : FCGC

Here's the song in order and this is 100 % correct

F|--------------------------------------------------|
C|--------------------------------------------------|
G|--------------------------------------------------|
C|-6--6--9--8--6--6--9--8--6--6--9--8--6--6--9--8---|

F|--------------------------------------------------|
C|--------------------------------------------------|
G|--------------------------------------------------|
C|-6--6--9--8--6--6--9--8--6--6--9--8--6--6--9--8---|

F|--------------------------------------------------|
C|--------------------------------------------------|
G|--------------------------------------------------|
C|-6--6--9--8--6--6--9--8--6--6--9--8--6--6--9--8---|

F|----------------------------------------------------|
C|----------------------------------------------------|
G|----------------------------------------------------|
C|-7-5-3-0-7-5-7-10-7-5-3-0-7-5-7-10-7-5-3-0-7-5-7-10-|


F|----------------------------------------------------|
C|----------------------------------------------------|
G|----------------------------------------------------|
C|-7-5-3-0-7-5-7-10-7-5-3-0-7-5-7-10-7-5-3-0-7-5-7-10-|


F|----------------------------------------------------|
C|----------------------------------------------------|
G|----------------------------------------------------|
C|-7-5-3-0-7-5-7-10-7-5-3-0-7-5-7-10-7-5-3-0-7-5-7-10-|

F|--------------------------------|
C|--------------------------------|
G|----7-6-4---6-7--3-2-3-5--------|
C|----------------------------7---|


F|-------------------------------------------------|
C|-------------------------------------------------|
G|-9-9-9-9-9-9-8-8-8-8-8-8-6-6-6-6-6-6-6-6-----8-9-|
C|-------------------------------------------------|


F|-------------------------------------------------|
C|-------------------------------------------------|
G|-------------------------------6-6-6-------------|
C|-9-9-9-9-9-9-8-8-8-8-8-7-7-7---------6-6-6-6-6-6-|


F|-----------------------------------------------------------------|
C|-----------------------------------------------------------------|
G|-----------------------------------------------------------------|
C|-6-6-6-6-6-6-6-6-6-6-6-6-6-6-6-7-7-7-7-7-7-7-7-7-7-7-7-7-7-7-7-7-|

F|--------------------------------------------------|
C|--------------------------------------------------|
G|--------------------------------------------------|
C|-6--6--9--8--6--6--9--8--6--6--9--8--6--6--9--8---|

F|--------------------------------------------------|
C|--------------------------------------------------|
G|--------------------------------------------------|
C|-6--6--9--8--6--6--9--8--6--6--9--8--6--6--9--8---|

F|-----------------------------------------------------------------|
C|-----------------------------------------------------------------|
G|-0-2-0--2-0-2-3---3-2-3-2--2-3-2-0-2-0--2-0-2-3-3-2-3-5---3-2-0--|
C|-----------------------------------------------------------------|

F|--------------------------------------------------|
C|--------------------------------------------------|
G|--------------------------------------------------|
C|-6--6--9--8--6--6--9--8--6--6--9--8--6--6--9--8---|

F|--------------------------------------------------|
C|--------------------------------------------------|
G|--------------------------------------------------|
C|-6--6--9--8--6--6--9--8--6--6--9--8--6--6--9--8---|


F|--------------------------------|
C|--------------------------------|
G|----7-6-4---6-7--3-2-3-5--------|
C|----------------------------7---|

F|--------------------------------|
C|--------------------------------|
G|----7-6-4---6-7--3-2-3-5--------|
C|----------------------------7---|

F|--------------------------------|
C|--------------------------------|
G|----7-6-4---6-7--3-2-3-5--------|
C|----------------------------7---|
[ Tab from: http://www.guitartabs.cc/tabs/c/cradle_of_filth/dusk_and_her_embrace_btab_ver_2.html ]
F|--------------------------------|
C|--------------------------------|
G|----7-6-4---6-7--3-2-3-5--------|
C|----------------------------7---|

F|----------------------------------------------------|
C|----------------------------------------------------|
G|----------------------------------------------------|
C|-7-5-3-0-7-5-7-10-7-5-3-0-7-5-7-10-7-5-3-0-7-5-7-10-|


F|----------------------------------------------------|
C|----------------------------------------------------|
G|----------------------------------------------------|
C|-7-5-3-0-7-5-7-10-7-5-3-0-7-5-7-10-7-5-3-0-7-5-7-10-|

F|----------------------------------------------------|
C|----------------------------------------------------|
G|----------------------------------------------------|
C|-7-5-3-0-7-5-7-10-7-5-3-0-7-5-7-10-7-5-3-0-7-5-7-10-|

F|--------------------------------|
C|--------------------------------|
G|----7-6-4---6-7--3-2-3-5--------|
C|----------------------------7---|

F|--------------------------------|
C|--------------------------------|
G|----7-6-4---6-7--3-2-3-5--------|
C|----------------------------7---|

F|----------------------------------------------------|
C|----------------------------------------------------|
G|----------------------------------------------------|
C|-7-5-3-0-7-5-7-10-7-5-3-0-7-5-7-10-7-5-3-0-7-5-7-10-|

F|----------------------------------------------------|
C|----------------------------------------------------|
G|----------------------------------------------------|
C|-7-5-3-0-7-5-7-10-7-5-3-0-7-5-7-10-7-5-3-0-7-5-7-10-|

F|--------------------------------------------------|
C|--------------------------------------------------|
G|--------------------------------------------------|
C|-6--6--9--8--6--6--9--8--6--6--9--8--6--6--9--8---|

F|--------------------------------------------------|
C|--------------------------------------------------|
G|--------------------------------------------------|
C|-6--6--9--8--6--6--9--8--6--6--9--8--6--6--9--8---|

F|---------------------------------------------------|
C|---------------------------------------------------|
G|-222222222222222-3333333333333333-555555555555555--|
C|---------------------------------------------------|

F|---------------------------------------------------|
C|---------------------------------------------------|
G|-0-2-0-2-3-2-0-2-3-5-2-0-2-0-2-3-2-0-2-3-5-2-3-2-0-|
C|---------------------------------------------------|

F|---------------------------------------------------|
C|---------------------------------------------------|
G|-222222222222222-3333333333333333-555555555555555--|
C|---------------------------------------------------|

F|---------------------------------------------------|
C|---------------------------------------------------|
G|-0-2-0-2-3-2-0-2-3-5-2-0-2-0-2-3-2-0-2-3-5-2-3-2-0-|
C|---------------------------------------------------|


F|--------------------------------|
C|--------------------------------|
G|----7-6-4---6-7--3-2-3-5--------|
C|----------------------------7---|

F|---------------------------------------------------|
C|---------------------------------------------------|
G|-222222222222222-3333333333333333-555555555555555--|
C|---------------------------------------------------|

F|---------------------------------------------------|
C|---------------------------------------------------|
G|-0-2-0-2-3-2-0-2-3-5-2-0-2-0-2-3-2-0-2-3-5-2-3-2-0-|
C|---------------------------------------------------|

F|---------------------------------------------------|
C|---------------------------------------------------|
G|-222222222222222-3333333333333333-555555555555555--|
C|---------------------------------------------------|

F|---------------------------------------------------|
C|---------------------------------------------------|
G|-0-2-0-2-3-2-0-2-3-5-2-0-2-0-2-3-2-0-2-3-5-2-3-2-0-|
C|---------------------------------------------------|