Cradle Of Filth - Doberman Pharaoh Chords & Tabs

 

Doberman Pharaoh Chords & Tabs

Cradle Of Filth Chords & Tabs

Version: 1 Type: Tab 0 ratings
1 star 2 stars 3 stars 4 stars 5 stars
comments

Doberman Pharaoh Tab

   
Cradle Of Filth - Doberman Pharaoh

Tuning-----Drop Db   (Db-Ab-Db-Gb-Bb-Ab-)

Intro

Guitar 1
----------------------------|
----------------------------|
----------------------------|  Whammy Bar (x2)
----------------------------|
----------------------------|
6-6-5-89--8-9-8-5-----------|

Guitar 2
----------------------------|
----------------------------|
----------------------------|  Whammy Bar (x2)
----------------------------|
6-6-5-89-8-9-8-5------------|
----------------------------|

Both guitars
Riff A
------------------------------------------------------------------|
------------------------------------------------------------------|
------------------------------------------------------------------|
------------------------------------------------------------------|
6--6--5-6-5-9--8-9-8-5555555555-------6--6--5-6-5-9--8-9-8-111111-|
6--6--5-6-5-9--8-9-8-5555555555-------6--6--5-6-5-9--8-9-8-111111-|
                     ..........                            ......
Riff B
-------------------------------|
-------------------------------|
-------------------------------|   (x2)
-------------------------------|
1--1--0-1-0-4--3-4-3-0000000---|
1--1--0-1-0-4--3-4-3-0000000---|

Riff A

Riff C
-----------------------------------|
-----------------------------------|
-----------------------------------|
8h9-8h98p7-7-8h9-8h98p7-7----------|     (4 Times)
----------9------------9-----------|
-----------------------------------|

Riff D
------------------------------------|
------------------------------------|
------------------------------------|
6h7-6h7-6p4-4-6h7-6h7-6p4-4---------|     (4 Times)
-----------7-------------7----------|
------------------------------------|

Riff C (4 Times)

Riff E
----------------------------------------|
----------------------------------------|
----------------------------------------|
------------7---------------------------|
6-----68--8-5----6---68--7--------------|
6-----68--8------6---68--7--------------|
      .   .          .
[ Tab from: http://www.guitartabs.cc/tabs/c/cradle_of_filth/doberman_pharaoh_tab.html ]
Riff F
----------------------------------------------|
----------------------------------------------|
----------------------------------------------|
6--6-5-6-5-6545-8---5----6--6-5-6-5-6543-8--7-|
6---------------8---5----6---------------8--7-|
6---------------8---5----6---------------8--7-|

Riff G (clean)
----9--------9-------9------------9------------|
--9---9---10---9---7--7-10p9p7--7---7----------|
6-----------------------------7----------------|  (4 Times)
--------7--------9-----------------------------|
-----------------------------------------------|
-----------------------------------------------|

Intro
Riff C 4 times
RIff D 4 Times

Riff H
----------------------------------------------|
----------------------------------------------|
----------------------------------------------|      2x
----------------------------------------------|
--1-1h2p1----1---1---1-1h2p1----2---212-------|
11-------5-44--33--11-------5-44--33----------|
..         ..  ..  ..         ..  ..

Riff H**
-----------------------------------------------|
-----------------------------------------------|
-----------------------------------------------|
-----------------------------------------------|  2x
--6--6-7-642---7---4----6--6-7-642---7---0-2---|
66-----------77--66---66-----------77--22------|
..           ..  ..   ..           ..  ..

Riff F (Twice)
Riff G (4 Times)

Riff H
---------------------------|
-------------7-------------|
-------9-----4-------------|     (x2)  Riff G plays 4 Times Starting at Riff H
11-----7-----4-----12------|
11-----7-----------12------|
11-----------------12------|

Riff H** (x2)
Riff H   (x2)

Riff F 4 Times

Riff A (x2)

Outro
--------------------------------------|
--------------------------------------|
--------------------------------------|       (2x)
1---0---5---4---1---0---5---4---------|
1---0---5---4---1---0---5---4---------|
1---0---5---4---1---0---5---4---------|


Downloaded from www.taborama.com

============================================================================
Comments