Cradle Of Filth - Cthulhu Dawn Chords & Tabs

 

Cthulhu Dawn Chords & Tabs

Cradle Of Filth Chords & Tabs

Version: 3 Type: Tab 0 ratings
1 star 2 stars 3 stars 4 stars 5 stars
comments

Cthulhu Dawn Tab

   
/---------------------------------------------------------------------------/
/    The following is the author's own interpretation of the song, to be    /
/                     used for private use and studying                     /
/---------------------------------------------------------------------------/

                CRADLE OF FILTH - CTHULHU DAWN
                     From the Album MIDIAN
              Copyright 2000 MUSIC FOR NATION LTD.

                     Version 666 - FEB '05

Transcribed by: Death8699

For Questions, Comments, Newest Version, or Corrections contact
 Death8699: at MethylinInfo@aol.com

Check Out Death Warp, With More Transcriptions On It:
 http://www.deathwarp.com/

..  - palm mute          /  - slide up to
 \  - slide down to      ~  - vibrato
 h  - hammer on          b  - bend
 p  - pull off            Suffixes for bend
                          ph - pinch harmonic
                           f - full bend    h - half bend
*  - see comment           r - release      t - tap bend
X  - percussion mute       ~ - vibrato bend
@  - slight palm mute     () - ghost note, sustained note

Tune Gtr to D |One Whole Step Down|

--C T H U L H U  D A W N--

|Intro| |Drums|

 |Riff A|
||---------------------------------------------||
||---------------------------------------------||
||:--------------------------------------------||
||:--------------------------------------------||
||---------7788887777------777788887777555555--||
||--555555------------4444---------------------||
||                                             ||
||---------------------------------------------||
||---------------------------------------------||
||--------------------------------------------:||
||--7755557777--10--10--10--10----------------:||
||--8877778888--8---8---8---8--6---6---6---6---||
||-----------------------------4---4---4---4---||


Play Riff A a total of 2 times.


|Riff B|
|-------------------------------------------|
|-------------------------------------------|
|:------------------------------------------|
|:-7-10-9_10-7-10-9_10-7-10-9_10-7-10-9_10--|
|--------h---------h---------h---------h----|
|-------------------------------------------|
|                                           |
|-------------------------------------------|
|-------------------------------------------|
|-------------------------------------------|
|--6-10-9_10-6-10-9_10-6-10-9_10-6-10-9_10--|
|--------h---------h---------h---------h----|
|-------------------------------------------|
|                                           |
|-------------------------------------------|
|-------------------------------------------|
|--7-10-9_10-7-10-9_10-7-10-9_10-7-10-9_10--|
|--------h---------h---------h---------h----|
|-------------------------------------------|
|-------------------------------------------|
|                                           |
|-------------------------------------------|
|-------------------------------12----------|
|--101312_13-91312_13-101312_13----1312_13-:|
|--------h--------h---------h----------h---:|
|-------------------------------------------|
|-------------------------------------------|


Play Riff B a total of 2 times.


Repeat Riff A a total of 2 times.


 |Riff C|(*)
||----------------------------------------------------||
||----------------------------------------------------||
||:--------------------------------------------------:||
||:---------------------------------44444444-77777777:||
||----4---------5\4---4---------5\4-22222222-55555555-||
||--2-2-2-222-2-3\2-2-2-2-222-2-3\2-------------------||
    .   . ... .  sl .   . ... .  sl


Play Riff C a total of 4 times and play half of Riff C the
4th time and end with a pick slide.


 |Riff D|
||---------------------------------------------------------|
||---------------------------------------------------------|
||:--------------------------------------------------------|
||:------------------------------------77777777777777777---|
||--77777777777777777-8888888888888888---------------------|
||---------------------------------------------------------|
||                                                         |
||---------------------------------------------------------|
||---------------------------------------------------------|
||---------------------------------------------------------|
||--10_96666666666666666-----------------------------------|
||----p-----------------777777777777777778888888888888888--|
||---------------------------------------------------------|
[ Tab from: http://www.guitartabs.cc/tabs/c/cradle_of_filth/cthulhu_dawn_tab_ver_3.html ]
 |---------------------------------------------------------||
 |---------------------------------------------------------||
 |--------------------------------------------------------:||
 |--------------------------------------------------------:||
 |--11---------11--------11/12---11---------11------11/12--||
 |--9---9999---9---9999---9/10---9---9999---9---9999-9/10--||
        ....       ....    sl        ....       .... sl


Play Riff D a total of 2 times.


Guitars rest for 2 bars.


Repeat Riff B a total of 2 times.


|Riff E|
|----------------------------------------------------------|
|----------------------------------------------------------|
|:---------------------------------------------------------|
|:------------------------------------7-5--7--10101010-----|
|------7--8--7-----7--8--7--5-----------------8-8-8-8-6666-|
|--5-----------4--------------------------------------4444-|
|                                                          |
|----------------------------------------------------------|
|----------------------------------------------------------|
|---------------------------------------------------------:|
|-----------------------------------775555777710101010----:|
|------7--8--7-----7--8--7-555555555----------8-8-8-8-6666-|
|--5-----------4--------------------------------------4444-|


Play Riff E a total of one time.


Repeat Riff C for a total of 4 times substitute following riff
on the last measure.


|---------------------------------------------------------|
|---------------------------------------------------------|
|:-------------------------------------------------------:|
|:-------------------------------------------------------:|
|--11---------11--------11/12---11---------11------11/12--|
|--9---9999---9---9999---9/10---9---9999---9---9999-9/10--|
       ....       ....    sl        ....       .... sl


Repeat Riff D a total of 2 times.


 |Riff F|
||--------------------------------------------||
||--------------------------------------------||
||:-------------------------------------------||
||:-------------------------------------------||
||------8_7_8-----8_7_8-----8_7_8-----8_7_8---||
||--000--p-h--000--p-h--000--p-h--000--p-h----||
||                                            ||
||--------------------------------------------||
||--------------------------------------------||
||-------------------------------------------:||
||-------------------------------------------:||
||--------------------------------------------||
||--8-11_10_11-8-11_10_11-7-10_9_10-7-10_9_10-||
        p  h       p  h       p h       p h


Play Riff F a total of 2 times.


 |Riff G|
||-------------------------------------------------------|
||-------------------------------------------------------|
||:------------------------------------------------------|
||:-8_7_8-----8_7_8-----8_7_8-----8_7_8------------------|
||---p-h--0-0--p-h--0-0--p-h--0-0--p-h--0-0--------------|
||-------------------------------------------------------|
          . .       . .       . .       . .

 |-------------------------------------------------------|
 |-------------------------------------------------------|
 |-------------------------------------------------------|
 |--11_10_11-----11_10_11-----11_10_11-----11_10_11------|
 |----p--h---0-0---p--h---0-0---p--h---0-0---p--h---0----|
 |-------------------------------------------------------|
 |           . .          . .          . .               |
 |-------------------------------------------------------|
 |-------------------------------------------------------|
 |-------------------------------------------------------|
 |-------------------------------------------------------|
 |--888-11_10_11-888-11_10_11-888-11_10_11-888-11_10_11--|
 |--------p--h---------p--h---------p--h---------p--h----|

 |-------------------------------------------------------||
 |-------------------------------------------------------||
 |------------------------------------------------------:||
 |------------------------------------------------------:||
 |-------------------------------------------------------||
 |--000-8_7_8-000-8_7_8-000-8_7_8-000-8_7_8--------------||
         p h       p h       p h       p h


Play Riff G a total of 2 times.


Synthesizer |Guitar tacet|


Repeat Riff A a total of 2 times.


|Ending| |Very Slow|
|--------------------------------|--------------------------------|
|--------------------------------|--------------------------------|
|:-------------------------------|-------------------------------:|
|:-------------------------------|----10-8--10-------------------:|
|------10--11--10-----10--11--10-|-8-----------6666-9999-10-(10)--|
|--8--------------7--------------|-------------4444-7777-8--(8)---|


End!

Check Out Death Warp, With More Transcriptions On It:
 http://www.deathwarp.com/
Comments