Cradle Of Filth - Cthulhu Dawn Chords & Tabs

 

Cthulhu Dawn Chords & Tabs

Cradle Of Filth Chords & Tabs

Version: 1 Type: Tab 0 ratings
1 star 2 stars 3 stars 4 stars 5 stars
comments

Cthulhu Dawn Tab

Cthulhu Dawn--Cradle of Filth

Normal tuning 


1.
-------------------------------------------------------------------------------
-------------------------------------------------------------------------------
-------------------------------------------------------------------------------
-------------------------------------------------------------------------------
-----------------6-6-7-7-7-7-7-7-6-6-6-6-6-6-----------6-6-6-6-7-7-7-7-6-6-6-6-
-4-4-4-4-4-4--------------------------------------3-3-3-3----------------------

--------------------------------------------------------
--------------------------------------------------------
--------------------------------------------------------
-----------------6-6-4-4-4-4-6-6-6-6-2-2-2-5-5-5--------
-4-4-4-4-4-4----------------------------2-2-2-5-5-5-----
--------------------------------------------0-0-0-3-3-3-

--------------     
--------------     
--------------     repeat 4X
-6-9-8-9------
--------------     
--------------     

-------------
-------------
-0-4-3-4-----  repeat 4X
-------------
-------------
-------------

--------------
-2-5-4-5------
--------------
--------------    repeat 4X
--------------
--------------

----------
-5-8-7-8--
----------   repeat 3X
----------
----------
----------

-5---------
---8-7-8---
-----------
-----------
-----------
-----------
Repeat 1.


------------------------------------------------------------------------- 
------------------------------------------------------------------------- 
---------3-3-3-3-3-3-3-3-3-3-3-3-3-3-3-3-6-6-6-6-6-6-6-6-6-6-6-6-6-6-6-6- repeat 2X
-3-3-4-3-3-3-3-3-3-3-3-3-3-3-3-3-3-3-3-6-6-6-6-6-6-6-6-6-6-6-6-6-6-6-6---
-3-3-4-1-1-1-1-1-1-1-1-1-1-1-1-1-1-1-1-4-4-4-4-4-4-4-4-4-4-4-4-4-4-4-4---
-1-1-2-------------------------------------------------------------------
[ Tab from: http://www.guitartabs.cc/tabs/c/cradle_of_filth/cthulhu_dawn_tab.html ]
2
------------------------------------------------------------------------------
------------------------------------------------------------------------------
------------------------------------------------------------------------------
------------------------------------------------------------------------------
-6-6-6-6-6-6-6-6-6-6-6-6-6-6-6-6-7-7-7-7-7-7-7-7-7-7-7-7-7-7-7-7--------------
------------------------------------------------------------------------------

------------------------------------------------------------------------------
------------------------------------------------------------------------------
------------------------------------------------------------------------------
-7-7-7-7-7-7-7-7-7-7-7-7-7-7-7-7-9-9-7-7-6-6-6-6-6-6-6-6-6-6-6-6-6-6-6-6------
------------------------------------------------------------------------------
------------------------------------------------------------------------------

------------------------------------------------------------------------------
------------------------------------------------------------------------------
------------------------------------------------------------------------------
------------------------------------------------------------------------------
6-6-6-6-6-6-6-6-6-6-6-6-6-6-6-6-7-7-7-7-7-7-7-7-7-7-7-7-7-7-7-7---------------
------------------------------------------------------------------------------

---------------------------------------------------------------------------------
---------------------------------------------------------------------------------
-5---------5---------5-6---------------------------------------------------------
-5---------5---------5-6---------------------------------------------------------
-3-3-3-3-3-3-3-3-3-4-------------------------------------------------------------
---------------------------------------------------------------------------------


that's all I did so if you want more than that you gotta do it yourself.
Comments