Cradle Of Filth - Born In A Burial Gown Chords & Tabs

 

Born In A Burial Gown Chords & Tabs

Cradle Of Filth Chords & Tabs

Version: 1 Type: Bass Tab 0 ratings
1 star 2 stars 3 stars 4 stars 5 stars
comments

Born In A Burial Gown Bass Tab

   
this tab is good 

the tunning is : d'g'g'b

-----1111100000000000000055-------
1-4-6-6-6-7-6---------------------
-65-8-3-4--7-7-7------7-6-76-87---
-------------------776------------
[ Tab from: http://www.guitartabs.cc/tabs/c/cradle_of_filth/born_in_a_burial_gown_btab.html ]
--4--56-5-----2-2---2--2-----00000
---7-7-7-7-7-7-7-7-7-7--7-7-7-7--7
-564564563---5-6---8--5-5---6-7--7
--8--88--8-8-8-8-8-8-8-8-8-67-5---

and the next bit is simple

--3--45-3---5-4-5--4-5-4-4-5-4-5-4-5
------------------8-----------------
------------------------------------
-0--93-6-----2------/--5-----44-4---


ok and that is pretty much it just listern to the son to get the timeing
Comments