Cradle Of Filth - Black Metal Chords & Tabs

 

Black Metal Chords & Tabs

Cradle Of Filth Chords & Tabs

Version: 1 Type: Bass Tab 0 ratings
1 star 2 stars 3 stars 4 stars 5 stars
comments

Black Metal Bass Tab

Band:  CRADLE OF FILTH
Album: CRUELTY AND THE BEAST-BONUS CD
Song:  Black Metal-Cover of Venom 
Transcribed By: mike filth (chadderton?
Email:          murderpowder@hotmail.com

intro
|-----|
|-----|
|-----|
|-12\-|

riff 1                         2X
|--------------------------------|
|--------------------------------|
|------------------------------5-|
|-6-33333-5-33333-4-33333-1-00---|

riff 2                            1X
|-----------------------------------|
|-----------------------------------|
|-3-00000-5-00000-3-00000-3-0---0-5-|
|-----------------------------4-----|

Riff 1 1X
[ Tab from: http://www.guitartabs.cc/tabs/c/cradle_of_filth/black_metal_btab.html ]
Riff 3                                2X
|--------------------------------------|
|----------------------------6--7--8---|
|----------------------------4--5--6---|
|-33333333-55555555-77777777-----------|

Riff 4               1x
|---------------------|
|---------------------|
|---------------------|
|-333333-33-3-3-3-3---|

Fill 1
-------|
-------|
-------|
-3/12\-|

Riff 1 4x
Riff 2 1x
Riff 1 1x
Riff 3 2x
riff 4 1x

Riff 5                 1x
|-----------------------|
|-----------------------|
|-----------------------|
|-3-3------3-5------5-7~|

Riff 1 2x

Riff 6                         1x
|-------------------------------|
|-------------------------------|
|-------------------------------|
|-8-----88-----88-----88-----5~~|

Riff 1 4x
Riff 2 1x
Riff 1 1x
Riff 3 2x
Riff 4 1x

End  1x
|-----|
|-----|
|-----|
|-0-3-|
Comments