Cradle Of Filth - Babalon Ad So Glad For The Madness Chords & Tabs

 

Babalon Ad So Glad For The Madness Chords & Tabs

Cradle Of Filth Chords & Tabs

Version: 1 Type: Bass Tab 0 ratings
1 star 2 stars 3 stars 4 stars 5 stars
comments

Babalon Ad So Glad For The Madness Bass Tab

Cradle Of Filth - Babylon A.d. (so Glad For The Madness)
Submitted By: mike filth (chadderton)
EMail: murderpowder@hotmail.com

This part is played along with the keyboard part
near the start:
|-------------------------|------------------------|
|----------------1-----1--|---------------1-----1--|
|---3--3------3-----4-----|--3--3------3-----4-----|
|-------------------------|------------------------|   
                                                   
------------------------|--------------------|
---------------1-----1--|--------------------|
--3--3------3-----4-----|--4-----------------|
------------------------|--------------------|        *3


This is the later part:                                                         
|--5--5--5--5--5--5--5--5--|
|--------------------------|
|--------------------------|
|--------------------------|
[ Tab from: http://www.guitartabs.cc/tabs/c/cradle_of_filth/babalon_ad_so_glad_for_the_madness_btab.html ]
--4--4--4--4--4--4--4--4--|--3--3--3--3--3--3--3--3--|
--------------------------|--------------------------|
--------------------------|--------------------------|
--------------------------|--------------------------|
                                                     
--1--1--1--1--1--1--1--1--|--5--5--5--5--5--5--5--5--|
--------------------------|--------------------------|
--------------------------|--------------------------|
--------------------------|--------------------------|
                                                      
--4--4--4--4--4--4--4--4--|--3--3--3--3--3--3--3--3--|
--------------------------|--------------------------|
--------------------------|--------------------------|
--------------------------|--------------------------|
                                                        
--1--1--1--1--1--1--1--1--|
--------------------------|
--------------------------|
--------------------------|





|---1--1--1--1--1--1--1--1--|--1--1--4--4--3--3--4--4---|
|---------------------------|---------------------------|
|---------------------------|---------------------------|
|---------------------------|---------------------------|    *2




                                                       
|--5--5--5--5--5--5--5--5--|--4--4--4--4--4--4--4--4--|
|--------------------------|--------------------------|
|--------------------------|--------------------------|
|--------------------------|--------------------------|
                                                      
|--3--3--3--3--3--3--3--3--|--1--1--1--1--1--1--1--1--|
|--------------------------|--------------------------|
|--------------------------|--------------------------|
|--------------------------|--------------------------|
Comments