Cradle Of Filth - A Gothic Romance Chords & Tabs

 

A Gothic Romance Chords & Tabs

Cradle Of Filth Chords & Tabs

Version: 1 Type: Tab 0 ratings
1 star 2 stars 3 stars 4 stars 5 stars
comments

A Gothic Romance Tab

   
CRADLE OF FILTH
'A Gothic Romance'

from the album 'Dusk... And Her Embrace'


transcribed by
  Kai O'Brien

find more metal tablatures at
  http://venus.spaceports.com/~metaltab/



notation:
v  = vibrato
b  = bend
r  = release
/  = slide up to
\  = slide down to
h  = hammer on
p  = pull off
<  = pick scrape down (from one end of string to other)
>  = pick scrape up (from one end of string to other)


BASS

G||------------------------------------------------------------------------||
D||------------------------------------------------------------------------||
A||------------------------------------------------------------------------||
E||-9---8---3---9---10---3-------------------------------------------------||

GUITAR

E||------------------------------------------------------------------------||
B||------------------------------------------------------------------------||
G||------------------------------------------------------------------------||
D||------------------------------------------------------------------------||
A||------------------------------------------------------------------------||
E||--------------<<<<<<<<<<<<<<<<<<<<<<<<<<<<<<<<<<<<<<<<<<<<<<<<<<<<<<<<<-||

LEAD GUITAR

E||------------------------------------------------------------------------||
B||------------------------------------------------------------------------||
G||------------------------------------------------------------------------||
D||------------------------------------------------------------------------||
A||------------------------------------------------------------------------||
E||-----------------------<<<<<<<<<<<<<<<<<<<<<<<<<<<<<<<<<<<<<<<<<<<<<<<<-||

G||------------------------------------------------------------------------||
D||------------------------------------------------------------------------||
A||------------------------------------------------------------------------||
E||-9---8---3---9---10---3---9---8---3---9---10---3------------------------||

E||------------------------------------------------------------------------||
B||------------------------------------------------------------------------||
G||------------------------------------------------------------------------||
D||-11--10--5---11--12---5---11--10--5---11--12---5------------------------||
A||-11--10--5---11--12---5---11--10--5---11--12---5------------------------||
E||-9---8---3---9---10---3---9---8---3---9---10---3------------------------||
[ Tab from: http://www.guitartabs.cc/tabs/c/cradle_of_filth/a_gothic_romance_tab.html ]
E||------------------------------------------------------------------------||
B||------------------------------------------------------------------------||
G||------------------------------------------------------------------------||
D||------------------------------------------------------------------------||
A||------------------------------------------------------------------------||
E||------------------------------------------------------------------------||

G||------------------------------------------------------------------------||
D||------------------------------------------------------------------------||
A||-------------2----------------------------------------------------------||
E||-7---------------------------------3-3-2-0------------------------------||

E||------------------------------------------------------------------------||
B||------------------------------------------------------------------------||
G||-------------4----------------------------------------------------------||
D||-9-----------4---------------------5-5-4-2------------------------------||
A||-9-----------2---------------------5-5-4-2------------------------------||
E||-7---------------------------------3-3-2-0------------------------------||

E||------------------------------------------------------------------------||
B||-------------------------------------------15-14-12-14-15-14-7----------||
G||-------------------4/7-7/11---------------------------------------------||
D||-9v-4v-2-4-0---4/9------------------------------------------------------||
A||-------------2----------------------------------------------------------||
E||------------------------------------------------------------------------||

G||------------------------------------------------------------------------||
D||------------------------------------------------------------------------||
A||-------------2----------------------------------------------------------||
E||-7---------------------------------3-3-2-0------------------------------||

E||------------------------------------------------------------------------||
B||------------------------------------------------------------------------||
G||-------------4----------------------------------------------------------||
D||-9-----------4---------------------5-5-4-2------------------------------||
A||-9-----------2---------------------5-5-4-2------------------------------||
E||-7---------------------------------3-3-2-0------------------------------||

E||------------------------------------------------------------------------||
B||-------------------------------------------15-14-12-14-15-14-7-14v-15---||
G||-------------------4/7-7/11---------------------------------------------||
D||-9v-4v-2-4-0---4/9------------------------------------------------------||
A||-------------2----------------------------------------------------------||
E||------------------------------------------------------------------------||
Comments