Cradle Of Filth - A Dream Of Wolves In The Snow Chords & Tabs

 

A Dream Of Wolves In The Snow Chords & Tabs

Cradle Of Filth Chords & Tabs

Version: 1 Type: Tab 0 ratings
1 star 2 stars 3 stars 4 stars 5 stars
comments

A Dream Of Wolves In The Snow Tab

 A Dream of Wolves in the Snow - Cradle of Filth
 `'`'`'`'`'`'`'`'`'`'`'`'`'`'`'`'`'`'`'`'`'`'`'`
 Don't expect many more like this; I just figured it out on keyboards so I
 thought I'd tab up a guitar version. You'll need three (count 'em) guitarists
 to play this, all tuned down one step. If you get lost (and this was a bitch
 to tab for some reason) just keep in mind that 'a' riffs are always the
 keyboard melodies, 'b' riffs are always the rhythm guitar and 'c' riffs are
 always the lead guitar. Marriage proposals to brunor@sggs.wcape.school.za

 
  Riff 1a: Let these notes ring as long as possible.
 |-----7---|-|-|-|-------8----|-|-|-|-----7---|-|-|-|-----6---|-|-|-|
 |---8---8-|-|-|-|----10---10-|-|-|-|---8---8-|-|-|-|---7---7-|-|-|-|
 |-9-------|-|-|-|-10---------|-|-|-|-9-------|-|-|-|-8-------|-|-|-|
 |---------||||------------||||---------||||---------||||
 |---------|-|-|-|------------|-|-|-|---------|-|-|-|---------|-|-|-|
 |---------|-|-|-|------------|-|-|-|---------|-|-|-|---------|-|-|-|

  Riff 1b: Sustain these chords until each change.
 |---------|-|-|-|-------------|-|-|-|--------|-|-|-|---------|-|-|-|
 |---------|-|-|-|-------------|-|-|-|--------|-|-|-|---------|-|-|-|
 |---------|-|-|-|-------------|-|-|-|--------|-|-|-|---------|-|-|-|
 |-9-------|-|-|-|-10----------|-|-|-|-9------|-|-|-|-8-------|-|-|-|
 |-7-------|-|-|-|-8-----------|-|-|-|-7------|-|-|-|-6-------|-|-|-|
 |-7-------|-|-|-|-8-----------|-|-|-|-7------|-|-|-|-6-------|-|-|-|


  Riff 2a:
 |--------------------|
 |--------------------|
 |---9-7--------------|
 |-7-----10-9-10-9-10-|
 |--------------------|
 |--------------------|


  Riff 3a: Let each note ring as long as possible.
 |-----------------|-----------------|-----------------|-----------------|
 |-13--------------|-12--------------|-10--------------|-10-----12-------|
 |-----------------|-----------------|-----------------|-----------------|
 |-----------------|-----------------|-----------------|-----------------|
 |-----------------|-----------------|-----------------|-----------------|
 |-----------------|-----------------|-----------------|-----------------|
[ Tab from: http://www.guitartabs.cc/tabs/c/cradle_of_filth/a_dream_of_wolves_in_the_snow_tab.html ]
  Riff 3b: Sustain each chord until the change.
 |-----------------|-----------------|-----------------|-----------------|
 |-----------------|-----------------|-----------------|-----------------|
 |-----------------|-----------------|-----------------|-----------------|
 |-10--------------|-9---------------|-7---------------|-7------9--------|
 |-10--------------|-9---------------|-7---------------|-7------9--------|
 |-8---------------|-7---------------|-5---------------|-5------7--------|

  Riff 3c:
 |-----------------|
 |-----------------|
 |-----------------|
 |-----------------|
 |---7-5-----------|
 |-5-----8-7-8-7-8-|


  Riff 4a: If you can't get the pull-off right, try playing just the 13.
 |----------|-|-|-|-|-|-|---------|
 |-13p12p10-|-|-|-|-|-|-|---12-10-|  Okay, those last two notes are really
 |----------|-|-|-|-|-|-|---------|  part of the solo, but for ease of tabbing
 |----------|||||||---------|  I've included them here.
 |----------|-|-|-|-|-|-|---------|
 |----------|-|-|-|-|-|-|---------|
 
  Riff 4b: Once again, sustain these chords.
 |----------|----------|----------|----------|
 |----------|----------|----------|----------|
 |----------|----------|----------|----------|
 |-7--------|-5--------|-3--------|-3---5----|
 |-7--------|-5--------|-3--------|-3---5----|
 |-5--------|-3--------|-1--------|-1---3----|

  Riff 4c: Only include the bracketed note the second time onwards. 
 |----------|----------|----------|----------|
 |----------|----------|----------|----------|
 |----------|----------|----------|----------|
 |----------|----------|----------|----------|
 |----------|----------|-7b-------|-5--------|
 |-(5)------|----------|----------|-----7----|


  "Solo": Played by the keyboard guitar (like I had to say it, right? ;)
 |----10----10---------------------------|
 |-13----13----10---10-12-13-12-10----10-|
 |---------------------------------12----|
 |---------------------------------------|
 |---------------------------------------|
 |---------------------------------------|

 |-------12-10------13-12-10---12-10-------------------|
 |-10-12-------13--------------------13-12-13-12-10----|
 |--------------------------------------------------12-|
 |-----------------------------------------------------|
 |-----------------------------------------------------|
 |-----------------------------------------------------|


 Riff 5a: Yes, it's the same as 4a... no, I'm not impaired...
 |----------|
 |-13p12p10-|
 |----------|
 |----------|
 |----------|
 |----------|


 Song structure:
  - (1) Riff 1a x2
    (2) Riff 1b x2
  - (1) Riff 2a x4
  - (1) Riff 3a x4
    (2) Riff 3b x4
    (3) Riff 3c x16
  - (1) Riff 4a x1
    (2) Riff 4b x1
    (3) Riff 4c x1
  - (1) Solo x1 
    (2) Riff 4b x2
    (3) Riff 4c x2
  - (1) Riff 5a x8
    (2) Riff 4b x1
    (3) Riff 4c x1
  - (1) Riff 3a x2  (remember to slow it down at the end)
    (2) Riff 4b x2
    (3) Riff 3c x12
Comments