Crackout - I Am The One Chords & Tabs

 

I Am The One Chords & Tabs

Crackout Chords & Tabs

Version: 2 Type: Tab 0 ratings
1 star 2 stars 3 stars 4 stars 5 stars
comments

I Am The One Tab

Tabbed by Mark Piper.
PLease visit my bands website:http://manakin1.tripod.com

This is a brilliant song.This is the correct version of it.
The other tab is very good but its not all right.The chorus is wrong.
The timeing and every thing arnt put down but if you know the song and
listen to it you will get it!!

Artist:Crackout
Song:I am the one
Album:This is really neat

Standard Tuning
~ wobble the string

Intro

e|---------------------------------------7----|
B|-4--6--8--9--8--6----4--6--8--9--8--6-------| (x4)
G|-4--5--7--9--7--5----4--5--7--9--7--5-------|
D|--------------------------------------------|
A|--------------------------------------------|
E|--------------------------------------------|


Heavy Distortion

e|------------------------------------|
B|------------------------------------|
G|------------------------------------| (x2)
D|--4444--2222--6666------22----------|
A|--2222--2222--4444--44--22----------|
E|--------0000--------22--00----------|

Verse
"who isnt on this trip for fun"
e|---------------------|
B|---------------------|
G|-444444444444--3~~---| (x2)
D|---------------------|
A|---------------------|
E|---------------------|

Chourus
"i am the one who comes undone"
e|----------------------------|
B|----------------------------|
G|----------------------------|(x2)
D|--4444--2222--6666--2222----|
A|--2222--2222--4444--2222----|
E|--------0000--------0000----|

Play the verse again.Then chorus twice!

"You never new this,it isnt like me"

e|--------------------------------------------|
B|-4--6--8--9--8--6----4--6--8--9--8--6-------|  (x4)
G|-4--5--7--9--7--5----4--5--7--9--7--5-------|
D|--------------------------------------------|
A|--------------------------------------------|
E|--------------------------------------------|

"Work me out and ill be"

e|--------------------------|
B|--------------------------|
G|--------------------------| (x2)
D|-4-------2----------------|
A|-2-4-6---2-6--4-----------|
E|---2-3---0-3--2-----------|


Heavy Distortion
[ Tab from: http://www.guitartabs.cc/tabs/c/crackout/i_am_the_one_tab_ver_2.html ]
e|------------------------------------|
B|------------------------------------|
G|------------------------------------| (x2)
D|--4444--2222--6666------22----------|
A|--2222--2222--4444--44--22----------|
E|--------0000--------22--00----------|

Verse with no guitar.

Chorus
"i am the one who comes undone"
e|----------------------------|
B|----------------------------|
G|----------------------------|(x4)
D|--4444--2222--6666--2222----|
A|--2222--2222--4444--2222----|
E|--------0000--------0000----|

"Work me out and ill be"

e|--------------------------|
B|--------------------------|
G|--------------------------| (x2)
D|-4-------2----------------|
A|-2-4-6---2-6--4-----------|
E|---2-3---0-3--2-----------|

Slow chorus part.

e|----------------------------------|
B|----------------------------------|
G|----------------------------------| (x2)
D|-1---1---2---2----1---1---2---2---|
A|---2---2---2---2----4---4---2---2-|
E|----------------------------------|


Chorus
"i am the one who comes undone"
e|----------------------------|
B|----------------------------|
G|----------------------------|(x4)
D|--4444--2222--6666--2222----|
A|--2222--2222--4444--2222----|
E|--------0000--------0000----|


Lead part at the end

e|----------------------------------|
B|----------------------------------|
G|----------------------------------|
D|-99999999-11-11-11-11-11-9--14-13-|
A|----------------------------------|
E|----------------------------------|

2nd part

e|----------------------------------|
B|----------------------------------|
G|----------------------------------|
D|-99999999-11-11-11-11-11-13-11-9--|
A|----------------------------------|
E|----------------------------------|


Chorus
"i am the one who comes undone"
e|----------------------------|
B|----------------------------|
G|----------------------------|(x4)
D|--4444--2222--6666--2222----|
A|--2222--2222--4444--2222----|
E|--------0000--------0000----|

End on
e|--------|
B|--------|
G|-9------|
D|-9------|
A|-7------|
E|--------|

Thats it.I hope you enjoy it as much as i do.
Comments