Cracker - I Hate My Generation Chords & Tabs

 

I Hate My Generation Chords & Tabs

Cracker Chords & Tabs

Version: 1 Type: Bass Tab 0 ratings
1 star 2 stars 3 stars 4 stars 5 stars
comments

I Hate My Generation Bass Tab

   
"I Hate My Generation"
by CRACKER
Bass Tab
GLL2000@aol.com
Okay, this song is fairly easy.  The only time it is erratic is at the 
beginning, but the little fills are easy also.
G:--------------------------------------------------------------
D:---------------------------------------------------------------
A:---------------------------------------------------------------
E:-0000-0000-3333-3333-2222-2222-1111-1111
Fills at Beginning
(These are optional or can be 
created by yourself.  Whatever sounds
good to you is fine)
(EXAMPLE)
G:------------------------
D:------------------------
A:---------------------3--
E:-0000-0000-3-5--5-
(Then back to 2222, 1111)
Fill before Main Riff
G:-------------------
D:-------------------
A:--7-6-5-3--------
E:-----------7-6-5-3
Main Riff
G:-----------------------------
A:------------------------------
D:--------2-2-0-------5555
E:-0-0-2-------3-33-------
WAHLAA!!  That's it.  I'm not totally sure
on all the fills, but I'm sure you can 
figure them out on your own.
ANY QUESTIONS 
E-MAIL ME AT GLL2000@aol.com


[ Tab from: http://www.guitartabs.cc/tabs/c/cracker/i_hate_my_generation_btab.html ]
Comments