Cracker - 100 Flower Power Maximum Chords & Tabs

 

100 Flower Power Maximum Chords & Tabs

Cracker Chords & Tabs

Version: 2 Type: Bass Tab 0 ratings
1 star 2 stars 3 stars 4 stars 5 stars
comments

100 Flower Power Maximum Bass Tab

Song Title: 100 Flower Power Maximum
Artist: Cracker
----------------------------------------------

100 Flower Power Maximum
Cracker


This is an easy song, and I think I got it right.  It sounds right when
I play it, anyway.  If it isn't just e-mail me.  If anyone has any other 
Cracker tablature, I would appreciate it.
samuel@tiac.net 


 All sixteenth notes                                                                                                        2x
|---------------------------------------------------|---------------------------------------------------|
|---------------------------------------------------|--0-0-0-0-0-0-0-0-1-1-1-1-1-1-1-1--|
|--2-2-2-2-2-2-2-2-3-3-3-3-3-3-3-3--|---------------------------------------------------|
|---------------------------------------------------|---------------------------------------------------|
 intro                                                                        
[ Tab from: http://www.guitartabs.cc/tabs/c/cracker/100_flower_power_maximum_btab_ver_2.html ]
                                                                                                    8x 
|---------------------------------------------------|---------------------------------------------------|
|---------------------------------------------------|---------------------------------------------------|
|--------------------------0-0-0-0-0-0-0-0--|--------------------------3-3-3-3-3-3-3-3--|
|--0-0-0-0-0-0-0-0--------------------------|--1-1-1-1-1-1-1-1--------------------------|
  Let's pick it up...                                   
                                                                                
                                                                                                    4x
|---------------------------------------------------|---------------------------------------------------|
|--0-0-0-0-0-0-0-0--------------------------|--------------------------0-0-0-0-0-0-0-0--|
|--------------------------3-3-3-3-3-3-3-3--|--0-0-0-0-0-0-0-0--------------------------|
|---------------------------------------------------|--------------------------------------------------|
well the year of the red neck mama...                                              
    
                                                                                                    2x
|---------------------------------------------------|---------------------------------------------------|
|---------------------------------------------------|--0-0-0-0-0-0-0-0-1-1-1-1-1-1-1-1--|
|--2-2-2-2-2-2-2-2-3-3-3-3-3-3-3-3--|---------------------------------------------------|
|---------------------------------------------------|---------------------------------------------------|
 Interlude                                                              

                                                                                                    4x
|---------------------------------------------------|---------------------------------------------------|
|---------------------------------------------------|---------------------------------------------------|
|--------------------------0-0-0-0-0-0-0-0--|--------------------------3-3-3-3-3-3-3-3--|
|--0-0-0-0-0-0-0-0--------------------------|--1-1-1-1-1-1-1-1--------------------------|
well the year of the red neck mama...(2nd verse)                                              

                                                                                                    8x
|---------------------------------------------------|---------------------------------------------------|
|--0-0-0-0-0-0-0-0--------------------------|--------------------------0-0-0-0-0-0-0-0--|
|--------------------------3-3-3-3-3-3-3-3--|--0-0-0-0-0-0-0-0--------------------------|
|---------------------------------------------------|---------------------------------------------------|
 outro (100 flower power maximum...)                            




================================================================================
==           Created with a shareware version of the BUCKET 'O TAB            ==
==                  tablature creation software for Windows                   ==
==                           For more information:                            ==
==                          email: gse@ocsystems.com                          ==
==      US Mail: The Bucket, 3176-B5 Summit Square Dr., Oakton, VA 22124      ==
================================================================================


Submitted by:  David Fleming (samuel@tiac.net)
Comments