Crack - May 8th Chords & Tabs

 

May 8th Chords & Tabs

Crack Chords & Tabs

Version: 1 Type: Tab 0 ratings
1 star 2 stars 3 stars 4 stars 5 stars
comments

May 8th Tab

   
May 8th 1998
CRACK

Intro

C      G    Am     F     C     G     Am     Em
--------------------------------------------------3--2--0-----0-3-0-3-|
-----1-----------------1-----1-----------------------------1--1---1---|
-----------0-----2---2------------------2-2-------------------2---0---|
---2-----------2---3-------2-------0--2---------2----0-----3--2---2---|
-3-------2---0-----------3-------2---0--------2---------3-----0---3---|
-------3-----------------------3------------0-----3-----------x---x---|

         C       G      Am      F      C      G      Am      F
-0-3-3------------------------------------------------------------|
-0---3------------------------------------------------------------|
-0---0------------------------------------------------------------|
-2---0------------------------------------------------------------|
-2---3------------------------------------------------------------|
-0---3------------------------------------------------------------|


Verse 1  (note each chord has 4 beats)
[ Tab from: http://www.guitartabs.cc/tabs/c/crack/may_8th_tab.html ]
  C          G      Am          F        C         G       Am    F
A long time ago you ran into my life, and now your running away

    C             G             Am         F      C         G             Am   F
You leave me here alone sitting by the telephone, wondering what I should say

   C                   G      Am          F   C        G                F
So take my breath from me and just let me be, I\'ve got better things to do

C              G       Am          F            C             G            Am   Em
When did you decide to leave me outside, in the cold and lonliness without you


Chourus

   Am   Am17
So take the fun I had with you and
C    C17
take whatever you have to and
Em   Em17
take the love I gave to you and
G(maj)
take it to a better place and then
Am   Am17
take the stars and the sun and
C     C17
break this promise when your done just
Em   Em17
make this wish my final one
G(maj)
I hope that you will never forget me


Verse 2 & 3 have same beat and chords) lyrics also avalible.
See Guitarology at Guitarknowledge.com for chord discriptions
Comments