Cpm 22 - Anteontem Chords & Tabs

 

Anteontem Chords & Tabs

Cpm 22 Chords & Tabs

Version: 1 Type: Tab 0 ratings
1 star 2 stars 3 stars 4 stars 5 stars
comments

Anteontem Tab

-------------------------------------------------------------------------------
                                 ANTEONTEM - CPM 22
-------------------------------------------------------------------------------

Tablatura feita por:										
											
SÃO BERNARDO										
BRASIL											

INTRO: 2x										
e |------------------------------------|							
B |------------------------------------|						
G |-----10--9------10--9-----10--9--12-|						
D |-10--10--9--10--10--9--7--10--9--12-|							
A |-10---8--7--10---8--7--7---8--7--10-|							
E |--8----------8---------5------------|						

VERSO: 4x										
e |------------------------------------|
B |------------------------------------|
G |-5-----7--10------------------------|
D |-5--5--7--10------------------------|
A |-3--5--5---8------------------------|
E |----3-------------------------------|

Estava tão triste quando você me disse que havia algo errado entre nós
Meu mundo girava e o seu controlava o que havia de errado no meu
Eu descia as escadas, as velhas escadas, sem medo de olhar o que eu deixei pra trás
Eu continuo do mesmo lado e não vou mudar minha opinião

SOLO 1: 4x
e |------------------------------------|
B |------------------------------------|
G |------------------------------------|
D |-2/3--2/3--5--5--5--5---------------|
A |------------------------------------|
E |------------------------------------|

VERSO: 4x
e |------------------------------------|
B |------------------------------------|
G |-5-----7--10------------------------|
D |-5--5--7--10------------------------|
A |-3--5--5---8------------------------|
E |----3-------------------------------|
[ Tab from: http://www.guitartabs.cc/tabs/c/cpm_22/anteontem_tab.html ]
Tênis furado e alguns trocados, relógio quebrado e poluição
Eu sentia em minha volta a dor da derrota quem foi que escolheu...

Sobre os meus próprios passos vou caminhar
Sobre os meus próprios passos nunca mais vou errar	

SOLO 2: 2x
e |------------------------------------|
B |------------------------------------|
G |-5--4-----5--4----------------------|
D |-------5--------3-------------------|
A |------------------------------------|
E |------------------------------------|

PONTE: 2x
e |------------------------------------|
B |------------------------------------|
G |-5--4-----5--4----------------------|
D |-5--4--5--5--4--3-------------------|
A |-3--2--5--3--2--3-------------------|
E |-------3--------1-------------------|

VERSO: 6x
e |------------------------------------|
B |------------------------------------|
G |-5-----7--10------------------------|
D |-5--5--7--10------------------------|
A |-3--5--5---8------------------------|
E |----3-------------------------------|

Sobre os meus próprios passos vou caminhar
Sobre os meus próprios passos nunca mais vou errar	

SOLO 3: 2x
e |------------------------------------------------------------------------------------|
B |------------------------------------------------------------------------------------|
G |-------------------------------------------------------------------5--4-------------|
D |-2/3--2/3--5--5--5--5--2/3--2/3--5--5--5--5--2/3--2/3--5--5--5--5--------5--5--5--5-|
A |------------------------------------------------------------------------------------|
E |------------------------------------------------------------------------------------|

-------------------------------------------------------------------------------
Comments