Coyote Shivers - Sugar High Chords & Tabs

 

Sugar High Chords & Tabs

Coyote Shivers Chords & Tabs

Version: 1 Type: Tab 0 ratings
1 star 2 stars 3 stars 4 stars 5 stars
comments

Sugar High Tab

Sugar High - coyote shivers

first tune the low E down to a D.

-INTRO-BRIDGE-

E)-------------------------------------------------------|
B)----5-----12-----2------10-10-10-10-10--10-------------|  G)----5-----12-----2------10-10-10-10-10--10-------------|
D)----5-----12-----2------10-10-10-10-10--10-------------|
A)----5-----12-----2------10-10-10-10-10--10-------------|
D)----5-----12-----2------10-10-10-10-10--10-------------|
                                                     (x2)

-Verse-
[ Tab from: http://www.guitartabs.cc/tabs/c/coyote_shivers/sugar_high_tab.html ]
E)-------------------------------------------------------|
B)-5-5-5-5-12-12-12-12-2-2-2-2-10-10-10-9----------------|
G)-5-5-5-5-12-12-12-12-2-2-2-2-10-10-10-9----------------|
D)-5-5-5-5-12-12-12-12-2-2-2-2-10-10-10-9----------------|
A)-5-5-5-5-12-12-12-12-2-2-2-2-10-10-10-9----------------|
D)-5-5-5-5-12-12-12-12-2-2-2-2-10-10-10-9----------------|
                                                     (x4)

-CHORUS-
E)--------------------------------------------------------
B)-12-12-12-12-12-12-10-10-10-10-10-10-12-12-12-12-12-12--
G)-12-12-12-12-12-12-10-10-10-10-10-10-12-12-12-12-12-12--
D)-12-12-12-12-12-12-10-10-10-10-10-10-12-12-12-12-12-12--
A)-12-12-12-12-12-12-10-10-10-10-10-10-12-12-12-12-12-12--
D)-12-12-12-12-12-12-10-10-10-10-10-10-12-12-12-12-12-12--

E)-------------------------------------------------------|
B)-10-10-10-10-10-9--------------------------------------|
G)-10-10-10-10-10-9--------------------------------------|
D)-10-10-10-10-10-9--------------------------------------|
A)-10-10-10-10-10-9--------------------------------------|
D)-10-10-10-10-10-9--------------------------------------|


If u listen to the song u'll work out where the parts fit in. To my knowledge the whole tab works, but if there are any mistakes... there aren't ne so i havn't thought of wat to do. Have fun ;) 
Comments