Cowsponge - Latino Ice Cream Man Chords & Tabs

 

Latino Ice Cream Man Chords & Tabs

Cowsponge Chords & Tabs

Version: 1 Type: Bass Tab 0 ratings
1 star 2 stars 3 stars 4 stars 5 stars
comments

Latino Ice Cream Man Bass Tab

Latino ice cream man- cowsponge


TABBED BY APEDRAPEPOWA (aka CJ)

--------------------------------------|
--------------------------------------|
--------------------------------------|
-0-0-0-0-0-0-0-0-1-1-1-1-1--1-1-3-1---|
[ Tab from: http://www.guitartabs.cc/tabs/c/cowsponge/latino_ice_cream_man_btab.html ]
--------------------------------------|
--------------------------------------|
--------------------------------------|
-0-0-0-0-0-0-0-0-1-1-1-1-1--1-1-3-1---|

--------------------------------------|
--------------------------------------|
--------------------------------------|
-0-0-0-0-0-0-0-0-1-1-1-1-1--1-1-3-1---|


--------------------------------------|
--------------------------------------|
--------------------------------------|
-0-0-0-0-0-0-0-0-1-1-1-1-1--1-1-3-1---|


keep doing that throughout the whole song
Comments