Cowboys Fringants - Lhiver Approche Chords & Tabs

 

Lhiver Approche Chords & Tabs

Cowboys Fringants Chords & Tabs

Version: 1 Type: Bass Tab 0 ratings
1 star 2 stars 3 stars 4 stars 5 stars
comments

Lhiver Approche Bass Tab

   
G|3-
D|--
A|--
E|--

En même temps que "couille" <--- M'excuse mais c'est dans la chanson


riff 1     x2

G|-----------------------------------------|
D|-5-5--3-3--1-------1---------------------|
A|--------------1-1-----1-1--0-0h1/3-5-----|
E|-----------------------------------------|


riff 2

G|---------------------------------------------------------------------------|
D|-5---5-5-7-9---9-9-----------7-9---9-9-----------3-5---5-0-1-2-3-4-5-6-7-8-|
A|---5---------9-----9-7---7-7-----9-----9-3---3-3-----5---------------------|
E|-----------------------7-------------------3-------------------------------|

G|---------------------------------------------------------------|----|
D|-5---5-5-7-9---9-9-----------7-9---9-9-----------3-5---5-------|----|
A|---5---------9-----9-7---7-7-----9-----9-3---3-3-----5---0-2-3-|5---|
E|-----------------------7-------------------3-------------------|--5-|
                      Répéter autant de fois que nécéssaire ---->|^^^^|

riff 1  x2


riff 3  X2

G|----------------------------------------------|
D|-7-7--5-5--3-------3--------------------------|
A|--------------3-3-----3-3--2-2h3/5-7----------|
E|----------------------------------------------|


riff 4

G|---------------------------------------------------------------------------------|
D|-7---7-7-9-11----11-11------------11----11-11------------5-7---7-7-3-4-5-6-7-8-9-|
A|---7----------11-------11-9---9-9----11-------11-5---5-5-----7-------------------|
E|----------------------------9----------------------5-----------------------------|
[ Tab from: http://www.guitartabs.cc/tabs/c/cowboys_fringants/lhiver_approche_btab.html ]
G|-------------------------------------------------------------------------|----|
D|-7---7-7-9-11----11-11------------11----11-11------------5-7---7-7-------|----|
A|---7----------11-------11-9---9-9----11-------11-5---5-5-----7-----3-5-6-|7---|
E|----------------------------9----------------------5---------------------|--7-|
                                Répéter autant de fois que nécéssaire ---->|^^^^|


riff 3  x2


riff 5  x1

G|-4-4---4-2-2--0-------0----------------|
D|-----4-----------0-0-----0-0---------4-|
A|-----------------------------4-4h5/7---|
E|---------------------------------------|


riff 6  x3

G|-4-4--2-2--0-------0----------------|-6-|
D|--------------0-0-----0-0---------4-|---|
A|--------------------------4-4h5/7---|---|
E|------------------------------------|---|


riff 7 Jusqu'à la fin

G|-4-4----4--2-2--2-4--0-0--4-6-7--7----------------------------6--|
D|------4----------------------------7--5-5---------------4-2-0----|
A|--------------------------------------------5-5---4--4-4---------|
E|-----------------------------------------------------------------|

h= Hammer
/= Slide

Pour savoir quand jouer quoi vous avez seulement à écouter la
chanson en même temps avec la basse dans le tapis!!


Bon ben c'est à peu près ça... Pour des commentaires, corrections
ou suggestions:

alexboost2@hotmail.com


PopTartDude
============\ \PopTartDude
=============\ \===========\ \PopTartDude
              \=============\ \============
                             \ ============
    PP            OO               PP
  PPPPPP        OOOOOO           PPPPPP
PPPPPPPPP      OOOO OOOO       PPPPPPPPP
PPP    PPP    OOOO   OOOO     PPPP    PPP
PP     PPPP  OOOO     OOOO    PPP     PPPP
PP     PPPP  OOOO      OOOO   PPP     PPPP
PP     PPPP  OOO        OOO   PPP     PPPP
PP     PPP   OOO        OOO   PPP     PPP
PPPPPPPPP    OOOO       OOOO  PPPPPPPPPP
PP            OOOO      OOOO  PPP
PP             OOOO     OOOO  PPP
PP              OOOO    OOO   PPP
PP               OOOO OOOO    PPP
PP                OOOOOOO     PPP
============\ \
=============\ \===========\ \
PopTartDude   \=============\ \============
               PopTartDude   \ ============
                               PopTartDude
Comments