Cowboy Mouth - Jenny Says Chords & Tabs

 

Jenny Says Chords & Tabs

Cowboy Mouth Chords & Tabs

Version: 2 Type: Bass Tab 0 ratings
1 star 2 stars 3 stars 4 stars 5 stars
comments

Jenny Says Bass Tab

Song: Jenny says 
Artist: Cowboy Mouth
Tabbed by: Jonathan Liu bassits for "the glassbullets" (reznor777@yahoo.com)

Good old southern' rocknroll. this is my first song to tab, i couldn't find 
it on the BTA so i decided to do it myself...it may suck...criticizm(spelling?) welcome.

intro:

G-----------------------------------------------
D-----------------------------------------------
A-----------------------------------------------
E------2----------------2----------------------

just play the note when the drums hit...

Verse:

G---------------------------------------------
D---------------------------------------------
A--------4-----2-----------------4-----2------
E---2------------------------2---------------

Pre-Chorus (follow guitar)

G-----------------------------------------------
D-----------------------------------------------
A----------------2------5------------5-----------4-
E--2------5-------------------2-----------2-------

[ Tab from: http://www.guitartabs.cc/tabs/c/cowboy_mouth/jenny_says_btab_ver_2.html ]
G-----------------------------------------------
D-----------------------------------------------
A--------------2-------5------------------4-4-4-4-4-4-4-4
E--2------5---------------------5-5-5-5----------------

Chorus:
(let it go, let it go....)
G------------------------------------------------
D------------------------------------------------
A--------4----2---------------4------2---------------
E----2---------------------2------------------------

G--------------------------------------------------
D--------------------------------------------------
A----4-4---5-5---4-4---7-7-----------------------
E--------------------------------------------------

Solo

G---------------------------------------------------
D-------------------4-------------------------------
A---------2----4----------------------------------
E----2--------------------------------------------

you just have to find when to play the parts of the verse, it shouldn't be that 
hard...tell me if i suck plz. reznor777@yahoo.com
Comments