Cowboy Junkies - Angel Mine Chords & Tabs

 

Angel Mine Chords & Tabs

Cowboy Junkies Chords & Tabs

Version: 1 Type: Chords 0 ratings
1 star 2 stars 3 stars 4 stars 5 stars
comments

Angel Mine Chords

   
---------------------------------------------------------------------------
			    Angel Mine by Cowboy Junkies
---------------------------------------------------------------------------
Tabbed by: Melissa Gorostiza 
Email: startrinityfire@sbcglobal.net

Tuning: standard
[ Tab from: http://www.guitartabs.cc/tabs/c/cowboy_junkies/angel_mine_crd.html ]
Intro: C Am Em F G C 
Verse: C Am Em F G C 
Chorus:F G C Bb F G C
Outro: C Am Em F G C

    C  Am  Em  F  G  Bb
e|--0--0---0---1--2---1-------------------------------|
B|--1--1---0---1--0---3-------------------------------|
G|--0--2---0---2--0---3-------------------------------|
D|--2--2---2---3--0---3-------------------------------|
A|--3--0---2---3--2---1-------------------------------|
E|---------0---1--3-----------------------------------|
Comments