Cowboy Bebop - Waltz For Zizi Chords & Tabs

 

Waltz For Zizi Chords & Tabs

Cowboy Bebop Chords & Tabs

Version: 1 Type: Tab 0 ratings
1 star 2 stars 3 stars 4 stars 5 stars
comments

Waltz For Zizi Tab

This is my interpritation of "Waltz for Zizi" from the anime series 
Cowboy Bebop.This one goes out to all the Bebop fans.
the timing signature is way off but the notes are correct.





|----------------3/5---0------3-----1------------------|
|--1--1-----1----------------3--------3-------1--------|
|----------2----------------3----------------2------2--|
|------------------------------------------------------|
|------------------------------------------------------|
|---------1--------------------------------1-------1---|


|----------1---3------5---6--5------3------------------|
|-----1--------------4-------------3----3--------------|
|----2--------------5-------------3----3---------------|
|-------------------------------------3----------------|
|------------------------------------------------------|
|---1--------------------------------------------------|




|----------6/2--2-----5-----3--1-----------------------|
|-----3--------------5---------------3----2------------|
|----3--------------5---------------3----3-------------|
|---3------------------------------3----3--------------|
|------------------------------------------------------|
|------------------------------------------------------|

[ Tab from: http://www.guitartabs.cc/tabs/c/cowboy_bebop/waltz_for_zizi_tab.html ]
|----------------------------------------------------------|
|-----1----3----3/5-----3-------1----3---3/5----3----------|
|----2-----------------3-------2---------------3-----------|
|---------------------3-----------------------3------------|
|----------------------------------------------------------|
|---1------------------------1-----------------------------|


|----------3/5--0-----3----1------------------------------------|
|-----1--------------3--------3------1--------------------------|
|----2--------------3---------------2----2----------------------|
|---------------------------------------------------------------|
|---------------------------------------------------------------|
|---1-----------------------------1-----1-----------------------|



|---------1---3------5----6-5-----3------------------------------|
|-----1-------------4------------3---3---------------------------|
|----2-------------5------------3---3----------------------------|
|----------------------------------3-----------------------------|
|----------------------------------------------------------------|
|---1------------------------------------------------------------|



|----3-----6/2--2-----5-----3---1-----3---1---------1--|
|---3----------------5---------------3-------3-----3---|
|--3----------------5---------------3-------------3----|
|------------------------------------------------------|
|------------------------------------------------------|
|------------------------------------------------------|


|-------------1/--5----5----5------|
|-----2---3------4---------4-------|
|----2----------5---------5--------|
|---2------------------------------|
|----------------------------------|
|----------------------------------|

Well thats all i could get at the moment.
any questions or comments are appriciated.
My e-mail is Boseefusmaximus@aol.com
Comments