Covenant - The Last Of Dragons Chords & Tabs

 

The Last Of Dragons Chords & Tabs

Covenant Chords & Tabs

Version: 1 Type: Tab 0 ratings
1 star 2 stars 3 stars 4 stars 5 stars
comments

The Last Of Dragons Tab

COVENANT
THE LAST OF DRAGONS
THE SONG IS INCOMPLETE SO IF ANYONE KNOWS THE REST E-MAIL ME: covenant33@hotmail.com

|-------------------------|-------|-------|
|-------------------------|-------|-------|
|-------------------------|-------|-------|
|---2/5-1---2/5-1---2/5-1-|-------|-------|
|-2-------2-------2-------|-2-3-5-|-5-4-3-|
|-0-------0-------0-------|-0-1-3-|-3-2-1-|
[ Tab from: http://www.guitartabs.cc/tabs/c/covenant/the_last_of_dragons_tab.html ]
|--------------------------|-----------------------|
|--------------------------|-----------------------|
|--------------------------|-----------------------|
|---------5--------------5-|--------7------------7-|
|-2--5-7--3--5-7--2-5-7--3-|-5-7-9--5-7-9--5-7-9-5-|
|-0--3-5-----3-5--0-3-5----|-3-5-7----5-7--3-5-7---|

|-------------------|-------------|-------------|
|-------------------|-------------|-------------|
|-------------------|-------------|-------------|
|-------------------|-7/5---------|---------7-5-|
|-2-----2----2----2-|-----7/5-----|-7/5-7/8-----|
|-0-000-0-00-0-00-0-|---------8-7-|-------------|

YOU JUST HAVE TO FIGURE OUT THE PICKING BETWEEN THE CHORDS
|----------------------------------|
|----------------------------------|
|----------------------------------|
|----------------------------------|
|-6--5-5--6--5-5---7--6-6--7--6-6--|
|-4--3-3--4--3-3---5--4-4--5--4-4--|
Comments