Courtney Love - Hold On To Me Chords & Tabs

 

Hold On To Me Chords & Tabs

Courtney Love Chords & Tabs

Version: 1 Type: Tab 0 ratings
1 star 2 stars 3 stars 4 stars 5 stars
comments

Hold On To Me Tab

   
Artist: Courtney Love
Song: Hold On To Me
Album: America's Sweetheart
Tabbed By: Ami (ms_mono@hotmail.com)

The lyrics and music to this song are beautiful.
Get better Courtney, we love you x 

    
{{Riff 1}} (Verse 1)
    F                     C                    G
E|-------------------|----------------------|----------------------|
B|-------------------|----------------------|----------------------|
G|-------------------|----------------------|----------------------|
D|-------------------|---2------------------|----------------------|
A|----3--------------|-3---3----------------|----2---2---2---------|
E|-1-----------------|----------------------|--3---3---3---3-------|

F                  C     G
Hey, this life is never fair
     F               C              G	
The angels that you need are never there
     F            C        G
But sometimes he comes to me
        F               C
In the dead of winter, dead of night
     G
He's all that I can see


CHORUS: (Strummed)

            F  C
Hold on to me
 G
Aaahhh
            F  C   G
Hold on to me
            F  C
Hold on to me
 G
Aaahhh
            F  C   G
Hold on to me


{{Riff 2}} (Verse 2)
    F                     C                    G
E|-------------------|----------------------|----------------------|
B|-------------------|----------------------|----------------------|
G|-------------------|----------------------|----------------------|
D|-------------------|---2------------------|-----------0----------|
A|----3--------------|-3---3----------------|----2---2----2--------|
E|-1-----------------|----------------------|--3---3---------------|
[ Tab from: http://www.guitartabs.cc/tabs/c/courtney_love/hold_on_to_me_tab.html ]
F              C     G
We all get our glory
   F             C G
A little bit of fame
                F            C        G
But there's no truth at the heart of any of it   
  F                 C 
Just the brilliance and the passion
         G
And the bitterness remains


CHORUS  

                     F C G
Oh how he brings me down
                   F C G
Oh, down into the ground
                  F C G
I never will get out
                      F C G
And I never will get out


     F                 C
And I'll protect you from the night
          G
And we'll never fall
    F                C
And I'll protect you from the truth
          G
You won't hear it at all
           F            C G
I am the centre of the universe
           F            C G
I am the centre of the universe
           F            C G
I am the centre of the universe


{{Riff 1}}

F                   C    G
When you're in the whirlpool
F                C        G
And they try to suck you in
           F                C
Remember, you aren't gonna drown
            G
Baby, 'til you have been alive
      F            C
Hang on to me, forever baby
 G                  F  C  G
I could always swim


           F C
Hold on to me
 G
Aaahhh     
            F C
Hold on to me
 G
Aaahhh
           F C
Hold on to me
 G
Aaahhh
           F C
Hold on to me
 G
Aaahhh
           F C
Hold on to me
 G
Aaahhh
           F C
Hold on to me
 G
Aaahhh
           F C
Hold on to me
 G
Aaahhh
           F C G
Hold on to me


{{Riff 1}}

F
Hush, your highness
C                  G
Don't you breathe
       F               C
Baby, hold me in your arms
         G
I'm shivering
      F     C        G
But what's all that for?
F             C
If I was the battle
       G                F
Baby, you have won the war
Comments