Court Martial - Gotta Get Out Chords & Tabs

 

Gotta Get Out Chords & Tabs

Court Martial Chords & Tabs

Version: 1 Type: Tab 0 ratings
1 star 2 stars 3 stars 4 stars 5 stars
comments

Gotta Get Out Tab

   
-----------------------------------------------------------------
Gotta Get Out - Court Martial
-----------------------------------------------------------------
Tabbed by: Dillon
Email: Angelic_oioi_upstart@yahoo.com

Tuning:Standard

Intro:
e|---------------------------------------------------------------|
B|---------------------------------------------------------------|
G|---------------------------------------------------------------|
D|-121212-1010-99999999------------------------------------------|
A|-121212-1010-99999999--(2 times)-------------------------------|
E|-101010--8-8-77777777------------------------------------------|

Verse:
e|---------------------------------------------------------------|
B|---------------------------------------------------------------|
G|----------------------1010-------------------------------------|
D|-1212121212121212-888-1010-1010101010101010--------------------|
A|-1212121212121212-888--8-8-1010101010101010--------------------|
E|-1010101010101010-666-------8-8-8-8-8-8-8-8--------------------|
[ Tab from: http://www.guitartabs.cc/tabs/c/court_martial/gotta_get_out_tab.html ]
Chorus:
e|---------------------------------------------------------------|
B|---------------------------------------------------------------|
G|---------------------------------------------------------------|
D|-1010-1010-1212-1212-888888-10101010---------------------------|
A|-1010-1010-1212-1212-888888-10101010---------------------------|
E|--8-8--8-8-1010-1010-666666--8-8-8-8---------------------------|

Bridge:
e|---------------------------------------------------------------|
B|---------------------------------------------------------------|
G|---------------------------------------------------------------|
D|-121212-1010-99999999------------------------------------------|
A|-121212-1010-99999999--(2 times)-------------------------------|
E|-101010--8-8-77777777------------------------------------------|

Bridge Continued:
e|--8-8-8-8-8-8-101010101010-141414141414141414141414------------|
B|--8-8-8-8-8-8-101010101010-141414141414141414141414------------|
G|--9-9-9-9-9-9-111111111111-131313131313131313131313-(4 Times)--|
D|-101010101010-121212121212-141414141414141414141414------------|
A|-101010101010-121212121212-141414141414141414141414------------|
E|--8-8-8-8-8-8-101010101010-121212121212121212121212------------|

| / slide up
| \ slide down
| h hammer-on
| p pull-off
| ~ vibrato
| + harmonic
| x Mute note

#----------------------------------PLEASE NOTE---------------------------------#
#This file is the author's own work and represents their interpretation of the #
#song. You may only use this file for private study, scholarship, or research. #
#------------------------------------------------------------------------------#
Comments